  0
SECTION
  2
HEADER
  9
$ACADVER
  1
AC1009
  9
$EXTMIN
 10
-0.02
 20
-0.02
  9
$EXTMAX
 10
0.29
 20
0.29
  0
ENDSEC
  0
SECTION
  2
TABLES
   0
TABLE
  2
VPORT
 70
     2
  0
VPORT
  2
*ACTIVE
 70
     0
 10
0.0
 20
0.0
 11
1.0
 21
1.0
 12
0.135
 22
0.135
 13
0.0
 23
0.0
 14
1.0
 24
1.0
 15
0.0
 25
0.0
 16
0.0
 26
0.0
 36
1.0
 17
0.0
 27
0.0
 37
0.0
 40
0.231
 41
1.86
 42
50.0
 43
0.0
 44
0.0
 50
0.0
 51
0.0
 71
     0
 72
   100
 73
     1
 74
     1
 75
     0
 76
     0
 77
     0
 78
     0
  0
ENDTAB
  0
TABLE
  2
LTYPE
 70
11
  0
LTYPE
  2
Solid
 70
0
  3
______
 72
65
 73
0
 40
0
  0
LTYPE
  2
Dash
 70
64
  3
_ _ _ _ _ _
 72
65
 73
2
 40
0.12
 49
0.08
 49
-0.04
  0
LTYPE
  2
Dot
 70
64
  3
. . . . . .
 72
65
 73
2
 40
0.04
 49
0
 49
-0.04
  0
LTYPE
  2
Dash-Dot
 70
64
  3
_ . _ . _ . _ .
 72
65
 73
4
 40
0.14
 49
0.06
 49
-0.04
 49
0
 49
-0.04
  0
LTYPE
  2
Dash-Dot-Dot
 70
64
  3
_ . . _ . . _ . .
 72
65
 73
6
 40
0.18
 49
0.06
 49
-0.04
 49
0
 49
-0.04
 49
0
 49
-0.04
  0
LTYPE
  2
Dash-Dash-Dot
 70
64
  3
_ _ . _ _ . _ _ .
 72
65
 73
6
 40
0.24
 49
0.06
 49
-0.04
 49
0.06
 49
-0.04
 49
0
 49
-0.04
  0
LTYPE
  2
Dash2
 70
64
  3
__ __ __ __ __ __
 72
65
 73
2
 40
0.16
 49
0.12
 49
-0.04
  0
LTYPE
  2
Dot2
 70
64
  3
.  .  .  .  .  .
 72
65
 73
2
 40
0.06
 49
0
 49
-0.06
  0
LTYPE
  2
Dash-Dot2
 70
64
  3
__ . __ . __ . __ .
 72
65
 73
4
 40
0.17
 49
0.09
 49
-0.04
 49
0
 49
-0.04
  0
LTYPE
  2
Dash-Dot-Dot2
 70
64
  3
__ . . __ . . __ . . __ . .
 72
65
 73
6
 40
0.21
 49
0.09
 49
-0.04
 49
0
 49
-0.04
 49
0
 49
-0.04
  0
LTYPE
  2
Dash-Dash-Dot2
 70
64
  3
__ __ . __ __ . __ __ .
 72
65
 73
6
 40
0.3
 49
0.09
 49
-0.04
 49
0.09
 49
-0.04
 49
0
 49
-0.04
  0
LTYPE
  2
Dash3
 70
64
  3
___  ___  ___  ___
 72
65
 73
2
 40
0.22
 49
0.16
 49
-0.06
  0
LTYPE
  2
Dot3
 70
64
  3
.   .   .   .   .   .
 72
65
 73
2
 40
0.08
 49
0
 49
-0.08
  0
LTYPE
  2
Dash-Dot3
 70
64
  3
___  .  ___  .  __   . ___  .
 72
65
 73
4
 40
0.24
 49
0.12
 49
-0.06
 49
0
 49
-0.06
  0
LTYPE
  2
Dash-Dot-Dot3
 70
64
  3
___  .  .  ___  .  .  ___  .  .
 72
65
 73
6
 40
0.3
 49
0.12
 49
-0.06
 49
0
 49
-0.06
 49
0
 49
-0.06
  0
LTYPE
  2
Dash-Dash-Dot3
 70
64
  3
___  ___  .  ___  ___  .  ___  ___  .
 72
65
 73
6
 40
0.42
 49
0.12
 49
-0.06
 49
0.12
 49
-0.06
 49
0
 49
-0.06
  0
ENDTAB
  0
TABLE
  2
LAYER
 70
1
  0
LAYER
  2
0
 70
0
 62
7
  6
Solid
  0
ENDTAB
  0
ENDSEC
  0
SECTION
  2
BLOCKS
  0
ENDSEC
  0
SECTION
  2
ENTITIES
  0
SOLID
  8
0
 62
7
 10
0.05
 20
0.18
 30
0
 11
0.06
 21
0.183
 31
0
 12
0.05
 22
0.18
 32
0
 13
0.067
 23
0.19
 33
0
  0
SOLID
  8
0
 62
7
 10
0.07
 20
0.2
 30
0
 11
0.067
 21
0.21
 31
0
 12
0.07
 22
0.2
 32
0
 13
0.06
 23
0.217
 33
0
  0
SOLID
  8
0
 62
7
 10
0.05
 20
0.22
 30
0
 11
0.04
 21
0.217
 31
0
 12
0.05
 22
0.22
 32
0
 13
0.033
 23
0.21
 33
0
  0
SOLID
  8
0
 62
7
 10
0.03
 20
0.2
 30
0
 11
0.033
 21
0.19
 31
0
 12
0.03
 22
0.2
 32
0
 13
0.04
 23
0.183
 33
0
  0
SOLID
  8
0
 62
7
 10
0.04
 20
0.183
 30
0
 11
0.05
 21
0.18
 31
0
 12
0.04
 22
0.183
 32
0
 13
0.067
 23
0.19
 33
0
  0
SOLID
  8
0
 62
7
 10
0.067
 20
0.19
 30
0
 11
0.07
 21
0.2
 31
0
 12
0.067
 22
0.19
 32
0
 13
0.06
 23
0.217
 33
0
  0
SOLID
  8
0
 62
7
 10
0.06
 20
0.217
 30
0
 11
0.05
 21
0.22
 31
0
 12
0.06
 22
0.217
 32
0
 13
0.033
 23
0.21
 33
0
  0
SOLID
  8
0
 62
7
 10
0.033
 20
0.21
 30
0
 11
0.03
 21
0.2
 31
0
 12
0.033
 22
0.21
 32
0
 13
0.04
 23
0.183
 33
0
  0
SOLID
  8
0
 62
7
 10
0.04
 20
0.183
 30
0
 11
0.067
 21
0.19
 31
0
 12
0.04
 22
0.183
 32
0
 13
0.06
 23
0.217
 33
0
  0
SOLID
  8
0
 62
7
 10
0.04
 20
0.183
 30
0
 11
0.06
 21
0.217
 31
0
 12
0.04
 22
0.183
 32
0
 13
0.033
 23
0.21
 33
0
  0
SOLID
  8
0
 62
7
 10
0.06
 20
0.04
 30
0
 11
0.07
 21
0.043
 31
0
 12
0.06
 22
0.04
 32
0
 13
0.077
 23
0.05
 33
0
  0
SOLID
  8
0
 62
7
 10
0.08
 20
0.06
 30
0
 11
0.077
 21
0.07
 31
0
 12
0.08
 22
0.06
 32
0
 13
0.07
 23
0.077
 33
0
  0
SOLID
  8
0
 62
7
 10
0.06
 20
0.08
 30
0
 11
0.05
 21
0.077
 31
0
 12
0.06
 22
0.08
 32
0
 13
0.043
 23
0.07
 33
0
  0
SOLID
  8
0
 62
7
 10
0.04
 20
0.06
 30
0
 11
0.043
 21
0.05
 31
0
 12
0.04
 22
0.06
 32
0
 13
0.05
 23
0.043
 33
0
  0
SOLID
  8
0
 62
7
 10
0.05
 20
0.043
 30
0
 11
0.06
 21
0.04
 31
0
 12
0.05
 22
0.043
 32
0
 13
0.077
 23
0.05
 33
0
  0
SOLID
  8
0
 62
7
 10
0.077
 20
0.05
 30
0
 11
0.08
 21
0.06
 31
0
 12
0.077
 22
0.05
 32
0
 13
0.07
 23
0.077
 33
0
  0
SOLID
  8
0
 62
7
 10
0.07
 20
0.077
 30
0
 11
0.06
 21
0.08
 31
0
 12
0.07
 22
0.077
 32
0
 13
0.043
 23
0.07
 33
0
  0
SOLID
  8
0
 62
7
 10
0.043
 20
0.07
 30
0
 11
0.04
 21
0.06
 31
0
 12
0.043
 22
0.07
 32
0
 13
0.05
 23
0.043
 33
0
  0
SOLID
  8
0
 62
7
 10
0.05
 20
0.043
 30
0
 11
0.077
 21
0.05
 31
0
 12
0.05
 22
0.043
 32
0
 13
0.07
 23
0.077
 33
0
  0
SOLID
  8
0
 62
7
 10
0.05
 20
0.043
 30
0
 11
0.07
 21
0.077
 31
0
 12
0.05
 22
0.043
 32
0
 13
0.043
 23
0.07
 33
0
  0
SOLID
  8
0
 62
7
 10
0.13
 20
0.11
 30
0
 11
0.14
 21
0.113
 31
0
 12
0.13
 22
0.11
 32
0
 13
0.147
 23
0.12
 33
0
  0
SOLID
  8
0
 62
7
 10
0.15
 20
0.13
 30
0
 11
0.147
 21
0.14
 31
0
 12
0.15
 22
0.13
 32
0
 13
0.14
 23
0.147
 33
0
  0
SOLID
  8
0
 62
7
 10
0.13
 20
0.15
 30
0
 11
0.12
 21
0.147
 31
0
 12
0.13
 22
0.15
 32
0
 13
0.113
 23
0.14
 33
0
  0
SOLID
  8
0
 62
7
 10
0.11
 20
0.13
 30
0
 11
0.113
 21
0.12
 31
0
 12
0.11
 22
0.13
 32
0
 13
0.12
 23
0.113
 33
0
  0
SOLID
  8
0
 62
7
 10
0.12
 20
0.113
 30
0
 11
0.13
 21
0.11
 31
0
 12
0.12
 22
0.113
 32
0
 13
0.147
 23
0.12
 33
0
  0
SOLID
  8
0
 62
7
 10
0.147
 20
0.12
 30
0
 11
0.15
 21
0.13
 31
0
 12
0.147
 22
0.12
 32
0
 13
0.14
 23
0.147
 33
0
  0
SOLID
  8
0
 62
7
 10
0.14
 20
0.147
 30
0
 11
0.13
 21
0.15
 31
0
 12
0.14
 22
0.147
 32
0
 13
0.113
 23
0.14
 33
0
  0
SOLID
  8
0
 62
7
 10
0.113
 20
0.14
 30
0
 11
0.11
 21
0.13
 31
0
 12
0.113
 22
0.14
 32
0
 13
0.12
 23
0.113
 33
0
  0
SOLID
  8
0
 62
7
 10
0.12
 20
0.113
 30
0
 11
0.147
 21
0.12
 31
0
 12
0.12
 22
0.113
 32
0
 13
0.14
 23
0.147
 33
0
  0
SOLID
  8
0
 62
7
 10
0.12
 20
0.113
 30
0
 11
0.14
 21
0.147
 31
0
 12
0.12
 22
0.113
 32
0
 13
0.113
 23
0.14
 33
0
  0
SOLID
  8
0
 62
7
 10
0.2
 20
0.03
 30
0
 11
0.21
 21
0.033
 31
0
 12
0.2
 22
0.03
 32
0
 13
0.217
 23
0.04
 33
0
  0
SOLID
  8
0
 62
7
 10
0.22
 20
0.05
 30
0
 11
0.217
 21
0.06
 31
0
 12
0.22
 22
0.05
 32
0
 13
0.21
 23
0.067
 33
0
  0
SOLID
  8
0
 62
7
 10
0.2
 20
0.07
 30
0
 11
0.19
 21
0.067
 31
0
 12
0.2
 22
0.07
 32
0
 13
0.183
 23
0.06
 33
0
  0
SOLID
  8
0
 62
7
 10
0.18
 20
0.05
 30
0
 11
0.183
 21
0.04
 31
0
 12
0.18
 22
0.05
 32
0
 13
0.19
 23
0.033
 33
0
  0
SOLID
  8
0
 62
7
 10
0.19
 20
0.033
 30
0
 11
0.2
 21
0.03
 31
0
 12
0.19
 22
0.033
 32
0
 13
0.217
 23
0.04
 33
0
  0
SOLID
  8
0
 62
7
 10
0.217
 20
0.04
 30
0
 11
0.22
 21
0.05
 31
0
 12
0.217
 22
0.04
 32
0
 13
0.21
 23
0.067
 33
0
  0
SOLID
  8
0
 62
7
 10
0.21
 20
0.067
 30
0
 11
0.2
 21
0.07
 31
0
 12
0.21
 22
0.067
 32
0
 13
0.183
 23
0.06
 33
0
  0
SOLID
  8
0
 62
7
 10
0.183
 20
0.06
 30
0
 11
0.18
 21
0.05
 31
0
 12
0.183
 22
0.06
 32
0
 13
0.19
 23
0.033
 33
0
  0
SOLID
  8
0
 62
7
 10
0.19
 20
0.033
 30
0
 11
0.217
 21
0.04
 31
0
 12
0.19
 22
0.033
 32
0
 13
0.21
 23
0.067
 33
0
  0
SOLID
  8
0
 62
7
 10
0.19
 20
0.033
 30
0
 11
0.21
 21
0.067
 31
0
 12
0.19
 22
0.033
 32
0
 13
0.183
 23
0.06
 33
0
  0
SOLID
  8
0
 62
7
 10
0.125
 20
0.2
 30
0
 11
0.135
 21
0.203
 31
0
 12
0.125
 22
0.2
 32
0
 13
0.142
 23
0.21
 33
0
  0
SOLID
  8
0
 62
7
 10
0.145
 20
0.22
 30
0
 11
0.142
 21
0.23
 31
0
 12
0.145
 22
0.22
 32
0
 13
0.135
 23
0.237
 33
0
  0
SOLID
  8
0
 62
7
 10
0.125
 20
0.24
 30
0
 11
0.115
 21
0.237
 31
0
 12
0.125
 22
0.24
 32
0
 13
0.108
 23
0.23
 33
0
  0
SOLID
  8
0
 62
7
 10
0.105
 20
0.22
 30
0
 11
0.108
 21
0.21
 31
0
 12
0.105
 22
0.22
 32
0
 13
0.115
 23
0.203
 33
0
  0
SOLID
  8
0
 62
7
 10
0.115
 20
0.203
 30
0
 11
0.125
 21
0.2
 31
0
 12
0.115
 22
0.203
 32
0
 13
0.142
 23
0.21
 33
0
  0
SOLID
  8
0
 62
7
 10
0.142
 20
0.21
 30
0
 11
0.145
 21
0.22
 31
0
 12
0.142
 22
0.21
 32
0
 13
0.135
 23
0.237
 33
0
  0
SOLID
  8
0
 62
7
 10
0.135
 20
0.237
 30
0
 11
0.125
 21
0.24
 31
0
 12
0.135
 22
0.237
 32
0
 13
0.108
 23
0.23
 33
0
  0
SOLID
  8
0
 62
7
 10
0.108
 20
0.23
 30
0
 11
0.105
 21
0.22
 31
0
 12
0.108
 22
0.23
 32
0
 13
0.115
 23
0.203
 33
0
  0
SOLID
  8
0
 62
7
 10
0.115
 20
0.203
 30
0
 11
0.142
 21
0.21
 31
0
 12
0.115
 22
0.203
 32
0
 13
0.135
 23
0.237
 33
0
  0
SOLID
  8
0
 62
7
 10
0.115
 20
0.203
 30
0
 11
0.135
 21
0.237
 31
0
 12
0.115
 22
0.203
 32
0
 13
0.108
 23
0.23
 33
0
  0
SOLID
  8
0
 62
7
 10
0.22
 20
0.16
 30
0
 11
0.23
 21
0.163
 31
0
 12
0.22
 22
0.16
 32
0
 13
0.237
 23
0.17
 33
0
  0
SOLID
  8
0
 62
7
 10
0.24
 20
0.18
 30
0
 11
0.237
 21
0.19
 31
0
 12
0.24
 22
0.18
 32
0
 13
0.23
 23
0.197
 33
0
  0
SOLID
  8
0
 62
7
 10
0.22
 20
0.2
 30
0
 11
0.21
 21
0.197
 31
0
 12
0.22
 22
0.2
 32
0
 13
0.203
 23
0.19
 33
0
  0
SOLID
  8
0
 62
7
 10
0.2
 20
0.18
 30
0
 11
0.203
 21
0.17
 31
0
 12
0.2
 22
0.18
 32
0
 13
0.21
 23
0.163
 33
0
  0
SOLID
  8
0
 62
7
 10
0.21
 20
0.163
 30
0
 11
0.22
 21
0.16
 31
0
 12
0.21
 22
0.163
 32
0
 13
0.237
 23
0.17
 33
0
  0
SOLID
  8
0
 62
7
 10
0.237
 20
0.17
 30
0
 11
0.24
 21
0.18
 31
0
 12
0.237
 22
0.17
 32
0
 13
0.23
 23
0.197
 33
0
  0
SOLID
  8
0
 62
7
 10
0.23
 20
0.197
 30
0
 11
0.22
 21
0.2
 31
0
 12
0.23
 22
0.197
 32
0
 13
0.203
 23
0.19
 33
0
  0
SOLID
  8
0
 62
7
 10
0.203
 20
0.19
 30
0
 11
0.2
 21
0.18
 31
0
 12
0.203
 22
0.19
 32
0
 13
0.21
 23
0.163
 33
0
  0
SOLID
  8
0
 62
7
 10
0.21
 20
0.163
 30
0
 11
0.237
 21
0.17
 31
0
 12
0.21
 22
0.163
 32
0
 13
0.23
 23
0.197
 33
0
  0
SOLID
  8
0
 62
7
 10
0.21
 20
0.163
 30
0
 11
0.23
 21
0.197
 31
0
 12
0.21
 22
0.163
 32
0
 13
0.203
 23
0.19
 33
0
  0
ENDSEC
  0
EOF
