  0
SECTION
  2
HEADER
  9
$ACADVER
  1
AC1009
  9
$EXTMIN
 10
-0.05
 20
-0.05
  9
$EXTMAX
 10
0.55
 20
0.633
  0
ENDSEC
  0
SECTION
  2
TABLES
   0
TABLE
  2
VPORT
 70
     2
  0
VPORT
  2
*ACTIVE
 70
     0
 10
0.0
 20
0.0
 11
1.0
 21
1.0
 12
0.25
 22
0.2915
 13
0.0
 23
0.0
 14
1.0
 24
1.0
 15
0.0
 25
0.0
 16
0.0
 26
0.0
 36
1.0
 17
0.0
 27
0.0
 37
0.0
 40
0.6413
 41
1.86
 42
50.0
 43
0.0
 44
0.0
 50
0.0
 51
0.0
 71
     0
 72
   100
 73
     1
 74
     1
 75
     0
 76
     0
 77
     0
 78
     0
  0
ENDTAB
  0
TABLE
  2
LTYPE
 70
11
  0
LTYPE
  2
Solid
 70
0
  3
______
 72
65
 73
0
 40
0
  0
LTYPE
  2
Dash
 70
64
  3
_ _ _ _ _ _
 72
65
 73
2
 40
0.12
 49
0.08
 49
-0.04
  0
LTYPE
  2
Dot
 70
64
  3
. . . . . .
 72
65
 73
2
 40
0.04
 49
0
 49
-0.04
  0
LTYPE
  2
Dash-Dot
 70
64
  3
_ . _ . _ . _ .
 72
65
 73
4
 40
0.14
 49
0.06
 49
-0.04
 49
0
 49
-0.04
  0
LTYPE
  2
Dash-Dot-Dot
 70
64
  3
_ . . _ . . _ . .
 72
65
 73
6
 40
0.18
 49
0.06
 49
-0.04
 49
0
 49
-0.04
 49
0
 49
-0.04
  0
LTYPE
  2
Dash-Dash-Dot
 70
64
  3
_ _ . _ _ . _ _ .
 72
65
 73
6
 40
0.24
 49
0.06
 49
-0.04
 49
0.06
 49
-0.04
 49
0
 49
-0.04
  0
LTYPE
  2
Dash2
 70
64
  3
__ __ __ __ __ __
 72
65
 73
2
 40
0.16
 49
0.12
 49
-0.04
  0
LTYPE
  2
Dot2
 70
64
  3
.  .  .  .  .  .
 72
65
 73
2
 40
0.06
 49
0
 49
-0.06
  0
LTYPE
  2
Dash-Dot2
 70
64
  3
__ . __ . __ . __ .
 72
65
 73
4
 40
0.17
 49
0.09
 49
-0.04
 49
0
 49
-0.04
  0
LTYPE
  2
Dash-Dot-Dot2
 70
64
  3
__ . . __ . . __ . . __ . .
 72
65
 73
6
 40
0.21
 49
0.09
 49
-0.04
 49
0
 49
-0.04
 49
0
 49
-0.04
  0
LTYPE
  2
Dash-Dash-Dot2
 70
64
  3
__ __ . __ __ . __ __ .
 72
65
 73
6
 40
0.3
 49
0.09
 49
-0.04
 49
0.09
 49
-0.04
 49
0
 49
-0.04
  0
LTYPE
  2
Dash3
 70
64
  3
___  ___  ___  ___
 72
65
 73
2
 40
0.22
 49
0.16
 49
-0.06
  0
LTYPE
  2
Dot3
 70
64
  3
.   .   .   .   .   .
 72
65
 73
2
 40
0.08
 49
0
 49
-0.08
  0
LTYPE
  2
Dash-Dot3
 70
64
  3
___  .  ___  .  __   . ___  .
 72
65
 73
4
 40
0.24
 49
0.12
 49
-0.06
 49
0
 49
-0.06
  0
LTYPE
  2
Dash-Dot-Dot3
 70
64
  3
___  .  .  ___  .  .  ___  .  .
 72
65
 73
6
 40
0.3
 49
0.12
 49
-0.06
 49
0
 49
-0.06
 49
0
 49
-0.06
  0
LTYPE
  2
Dash-Dash-Dot3
 70
64
  3
___  ___  .  ___  ___  .  ___  ___  .
 72
65
 73
6
 40
0.42
 49
0.12
 49
-0.06
 49
0.12
 49
-0.06
 49
0
 49
-0.06
  0
ENDTAB
  0
TABLE
  2
LAYER
 70
1
  0
LAYER
  2
0
 70
0
 62
7
  6
Solid
  0
ENDTAB
  0
ENDSEC
  0
SECTION
  2
BLOCKS
  0
ENDSEC
  0
SECTION
  2
ENTITIES
  0
POLYLINE
  8
0
  6
Solid
 62
7
 66
1
 10
0
 20
0
 30
0
 40
0
 41
0
  0
VERTEX
  8
0
  6
Solid
 62
7
 10
0
 20
0
 30
0
  0
VERTEX
  8
0
  6
Solid
 62
7
 10
0.5
 20
0
 30
0
  0
SEQEND
  0
POLYLINE
  8
0
  6
Solid
 62
7
 66
1
 10
0
 20
0
 30
0
 40
0
 41
0
  0
VERTEX
  8
0
  6
Solid
 62
7
 10
0
 20
0.075
 30
0
  0
VERTEX
  8
0
  6
Solid
 62
7
 10
0.5
 20
0.075
 30
0
  0
SEQEND
  0
POLYLINE
  8
0
  6
Solid
 62
7
 66
1
 10
0
 20
0
 30
0
 40
0
 41
0
  0
VERTEX
  8
0
  6
Solid
 62
7
 10
0
 20
0.15
 30
0
  0
VERTEX
  8
0
  6
Solid
 62
7
 10
0.5
 20
0.15
 30
0
  0
SEQEND
  0
POLYLINE
  8
0
  6
Solid
 62
7
 66
1
 10
0
 20
0
 30
0
 40
0
 41
0
  0
VERTEX
  8
0
  6
Solid
 62
7
 10
0
 20
0.3
 30
0
  0
VERTEX
  8
0
  6
Solid
 62
7
 10
0.5
 20
0.3
 30
0
  0
SEQEND
  0
POLYLINE
  8
0
  6
Solid
 62
7
 66
1
 10
0
 20
0
 30
0
 40
0
 41
0
  0
VERTEX
  8
0
  6
Solid
 62
7
 10
0
 20
0.375
 30
0
  0
VERTEX
  8
0
  6
Solid
 62
7
 10
0.5
 20
0.375
 30
0
  0
SEQEND
  0
POLYLINE
  8
0
  6
Solid
 62
7
 66
1
 10
0
 20
0
 30
0
 40
0
 41
0
  0
VERTEX
  8
0
  6
Solid
 62
7
 10
0
 20
0.45
 30
0
  0
VERTEX
  8
0
  6
Solid
 62
7
 10
0.5
 20
0.45
 30
0
  0
SEQEND
  0
POLYLINE
  8
0
  6
Solid
 62
7
 66
1
 10
0
 20
0
 30
0
 40
0
 41
0
  0
VERTEX
  8
0
  6
Solid
 62
7
 10
0.075
 20
0
 30
0
  0
VERTEX
  8
0
  6
Solid
 62
7
 10
0.075
 20
0.075
 30
0
  0
SEQEND
  0
POLYLINE
  8
0
  6
Solid
 62
7
 66
1
 10
0
 20
0
 30
0
 40
0
 41
0
  0
VERTEX
  8
0
  6
Solid
 62
7
 10
0.325
 20
0
 30
0
  0
VERTEX
  8
0
  6
Solid
 62
7
 10
0.325
 20
0.075
 30
0
  0
SEQEND
  0
POLYLINE
  8
0
  6
Solid
 62
7
 66
1
 10
0
 20
0
 30
0
 40
0
 41
0
  0
VERTEX
  8
0
  6
Solid
 62
7
 10
0.175
 20
0.075
 30
0
  0
VERTEX
  8
0
  6
Solid
 62
7
 10
0.175
 20
0.15
 30
0
  0
SEQEND
  0
POLYLINE
  8
0
  6
Solid
 62
7
 66
1
 10
0
 20
0
 30
0
 40
0
 41
0
  0
VERTEX
  8
0
  6
Solid
 62
7
 10
0.425
 20
0.075
 30
0
  0
VERTEX
  8
0
  6
Solid
 62
7
 10
0.425
 20
0.15
 30
0
  0
SEQEND
  0
POLYLINE
  8
0
  6
Solid
 62
7
 66
1
 10
0
 20
0
 30
0
 40
0
 41
0
  0
VERTEX
  8
0
  6
Solid
 62
7
 10
0.075
 20
0.3
 30
0
  0
VERTEX
  8
0
  6
Solid
 62
7
 10
0.075
 20
0.375
 30
0
  0
SEQEND
  0
POLYLINE
  8
0
  6
Solid
 62
7
 66
1
 10
0
 20
0
 30
0
 40
0
 41
0
  0
VERTEX
  8
0
  6
Solid
 62
7
 10
0.175
 20
0.375
 30
0
  0
VERTEX
  8
0
  6
Solid
 62
7
 10
0.175
 20
0.45
 30
0
  0
SEQEND
  0
POLYLINE
  8
0
  6
Solid
 62
7
 66
1
 10
0
 20
0
 30
0
 40
0
 41
0
  0
VERTEX
  8
0
  6
Solid
 62
7
 10
0.325
 20
0.3
 30
0
  0
VERTEX
  8
0
  6
Solid
 62
7
 10
0.325
 20
0.375
 30
0
  0
SEQEND
  0
POLYLINE
  8
0
  6
Solid
 62
7
 66
1
 10
0
 20
0
 30
0
 40
0
 41
0
  0
VERTEX
  8
0
  6
Solid
 62
7
 10
0.425
 20
0.375
 30
0
  0
VERTEX
  8
0
  6
Solid
 62
7
 10
0.425
 20
0.45
 30
0
  0
SEQEND
  0
POLYLINE
  8
0
  6
Solid
 62
7
 66
1
 10
0
 20
0
 30
0
 40
0
 41
0
  0
VERTEX
  8
0
  6
Solid
 62
7
 10
0.039
 20
0.583
 30
0
  0
VERTEX
  8
0
  6
Solid
 62
7
 10
0.216
 20
0.583
 30
0
  0
SEQEND
  0
POLYLINE
  8
0
  6
Solid
 62
7
 66
1
 10
0
 20
0
 30
0
 40
0
 41
0
  0
VERTEX
  8
0
  6
Solid
 62
7
 10
0.245
 20
0.583
 30
0
  0
VERTEX
  8
0
  6
Solid
 62
7
 10
0.363
 20
0.583
 30
0
  0
SEQEND
  0
POLYLINE
  8
0
  6
Solid
 62
7
 66
1
 10
0
 20
0
 30
0
 40
0
 41
0
  0
VERTEX
  8
0
  6
Solid
 62
7
 10
0.392
 20
0.583
 30
0
  0
VERTEX
  8
0
  6
Solid
 62
7
 10
0.422
 20
0.583
 30
0
  0
SEQEND
  0
POLYLINE
  8
0
  6
Solid
 62
7
 66
1
 10
0
 20
0
 30
0
 40
0
 41
0
  0
VERTEX
  8
0
  6
Solid
 62
7
 10
0.451
 20
0.583
 30
0
  0
VERTEX
  8
0
  6
Solid
 62
7
 10
0.5
 20
0.583
 30
0
  0
SEQEND
  0
POLYLINE
  8
0
  6
Solid
 62
7
 66
1
 10
0
 20
0
 30
0
 40
0
 41
0
  0
VERTEX
  8
0
  6
Solid
 62
7
 10
0.02
 20
0.554
 30
0
  0
VERTEX
  8
0
  6
Solid
 62
7
 10
0.211
 20
0.554
 30
0
  0
SEQEND
  0
POLYLINE
  8
0
  6
Solid
 62
7
 66
1
 10
0
 20
0
 30
0
 40
0
 41
0
  0
VERTEX
  8
0
  6
Solid
 62
7
 10
0.265
 20
0.554
 30
0
  0
VERTEX
  8
0
  6
Solid
 62
7
 10
0.358
 20
0.554
 30
0
  0
SEQEND
  0
POLYLINE
  8
0
  6
Solid
 62
7
 66
1
 10
0
 20
0
 30
0
 40
0
 41
0
  0
VERTEX
  8
0
  6
Solid
 62
7
 10
0.387
 20
0.554
 30
0
  0
VERTEX
  8
0
  6
Solid
 62
7
 10
0.426
 20
0.554
 30
0
  0
SEQEND
  0
POLYLINE
  8
0
  6
Solid
 62
7
 66
1
 10
0
 20
0
 30
0
 40
0
 41
0
  0
VERTEX
  8
0
  6
Solid
 62
7
 10
0.446
 20
0.554
 30
0
  0
VERTEX
  8
0
  6
Solid
 62
7
 10
0.471
 20
0.554
 30
0
  0
SEQEND
  0
POLYLINE
  8
0
  6
Solid
 62
7
 66
1
 10
0
 20
0
 30
0
 40
0
 41
0
  0
VERTEX
  8
0
  6
Solid
 62
7
 10
0
 20
0.524
 30
0
  0
VERTEX
  8
0
  6
Solid
 62
7
 10
0.196
 20
0.524
 30
0
  0
SEQEND
  0
POLYLINE
  8
0
  6
Solid
 62
7
 66
1
 10
0
 20
0
 30
0
 40
0
 41
0
  0
VERTEX
  8
0
  6
Solid
 62
7
 10
0.23
 20
0.524
 30
0
  0
VERTEX
  8
0
  6
Solid
 62
7
 10
0.27
 20
0.524
 30
0
  0
SEQEND
  0
POLYLINE
  8
0
  6
Solid
 62
7
 66
1
 10
0
 20
0
 30
0
 40
0
 41
0
  0
VERTEX
  8
0
  6
Solid
 62
7
 10
0.304
 20
0.524
 30
0
  0
VERTEX
  8
0
  6
Solid
 62
7
 10
0.338
 20
0.524
 30
0
  0
SEQEND
  0
POLYLINE
  8
0
  6
Solid
 62
7
 66
1
 10
0
 20
0
 30
0
 40
0
 41
0
  0
VERTEX
  8
0
  6
Solid
 62
7
 10
0.373
 20
0.524
 30
0
  0
VERTEX
  8
0
  6
Solid
 62
7
 10
0.431
 20
0.524
 30
0
  0
SEQEND
  0
POLYLINE
  8
0
  6
Solid
 62
7
 66
1
 10
0
 20
0
 30
0
 40
0
 41
0
  0
VERTEX
  8
0
  6
Solid
 62
7
 10
0.48
 20
0.524
 30
0
  0
VERTEX
  8
0
  6
Solid
 62
7
 10
0.5
 20
0.524
 30
0
  0
SEQEND
  0
POLYLINE
  8
0
  6
Solid
 62
7
 66
1
 10
0
 20
0
 30
0
 40
0
 41
0
  0
VERTEX
  8
0
  6
Solid
 62
7
 10
0
 20
0.277
 30
0
  0
VERTEX
  8
0
  6
Solid
 62
7
 10
0.142
 20
0.277
 30
0
  0
SEQEND
  0
POLYLINE
  8
0
  6
Solid
 62
7
 66
1
 10
0
 20
0
 30
0
 40
0
 41
0
  0
VERTEX
  8
0
  6
Solid
 62
7
 10
0.206
 20
0.277
 30
0
  0
VERTEX
  8
0
  6
Solid
 62
7
 10
0.397
 20
0.277
 30
0
  0
SEQEND
  0
POLYLINE
  8
0
  6
Solid
 62
7
 66
1
 10
0
 20
0
 30
0
 40
0
 41
0
  0
VERTEX
  8
0
  6
Solid
 62
7
 10
0.426
 20
0.277
 30
0
  0
VERTEX
  8
0
  6
Solid
 62
7
 10
0.5
 20
0.277
 30
0
  0
SEQEND
  0
POLYLINE
  8
0
  6
Solid
 62
7
 66
1
 10
0
 20
0
 30
0
 40
0
 41
0
  0
VERTEX
  8
0
  6
Solid
 62
7
 10
0
 20
0.247
 30
0
  0
VERTEX
  8
0
  6
Solid
 62
7
 10
0.137
 20
0.247
 30
0
  0
SEQEND
  0
POLYLINE
  8
0
  6
Solid
 62
7
 66
1
 10
0
 20
0
 30
0
 40
0
 41
0
  0
VERTEX
  8
0
  6
Solid
 62
7
 10
0.196
 20
0.247
 30
0
  0
VERTEX
  8
0
  6
Solid
 62
7
 10
0.392
 20
0.247
 30
0
  0
SEQEND
  0
POLYLINE
  8
0
  6
Solid
 62
7
 66
1
 10
0
 20
0
 30
0
 40
0
 41
0
  0
VERTEX
  8
0
  6
Solid
 62
7
 10
0.422
 20
0.247
 30
0
  0
VERTEX
  8
0
  6
Solid
 62
7
 10
0.5
 20
0.247
 30
0
  0
SEQEND
  0
POLYLINE
  8
0
  6
Solid
 62
7
 66
1
 10
0
 20
0
 30
0
 40
0
 41
0
  0
VERTEX
  8
0
  6
Solid
 62
7
 10
0
 20
0.218
 30
0
  0
VERTEX
  8
0
  6
Solid
 62
7
 10
0.118
 20
0.218
 30
0
  0
SEQEND
  0
POLYLINE
  8
0
  6
Solid
 62
7
 66
1
 10
0
 20
0
 30
0
 40
0
 41
0
  0
VERTEX
  8
0
  6
Solid
 62
7
 10
0.152
 20
0.218
 30
0
  0
VERTEX
  8
0
  6
Solid
 62
7
 10
0.176
 20
0.218
 30
0
  0
SEQEND
  0
POLYLINE
  8
0
  6
Solid
 62
7
 66
1
 10
0
 20
0
 30
0
 40
0
 41
0
  0
VERTEX
  8
0
  6
Solid
 62
7
 10
0.206
 20
0.218
 30
0
  0
VERTEX
  8
0
  6
Solid
 62
7
 10
0.392
 20
0.218
 30
0
  0
SEQEND
  0
POLYLINE
  8
0
  6
Solid
 62
7
 66
1
 10
0
 20
0
 30
0
 40
0
 41
0
  0
VERTEX
  8
0
  6
Solid
 62
7
 10
0.422
 20
0.218
 30
0
  0
VERTEX
  8
0
  6
Solid
 62
7
 10
0.5
 20
0.218
 30
0
  0
SEQEND
  0
POLYLINE
  8
0
  6
Solid
 62
7
 66
1
 10
0
 20
0
 30
0
 40
0
 41
0
  0
VERTEX
  8
0
  6
Solid
 62
7
 10
0
 20
0.189
 30
0
  0
VERTEX
  8
0
  6
Solid
 62
7
 10
0.088
 20
0.189
 30
0
  0
SEQEND
  0
POLYLINE
  8
0
  6
Solid
 62
7
 66
1
 10
0
 20
0
 30
0
 40
0
 41
0
  0
VERTEX
  8
0
  6
Solid
 62
7
 10
0.132
 20
0.189
 30
0
  0
VERTEX
  8
0
  6
Solid
 62
7
 10
0.186
 20
0.189
 30
0
  0
SEQEND
  0
POLYLINE
  8
0
  6
Solid
 62
7
 66
1
 10
0
 20
0
 30
0
 40
0
 41
0
  0
VERTEX
  8
0
  6
Solid
 62
7
 10
0.221
 20
0.189
 30
0
  0
VERTEX
  8
0
  6
Solid
 62
7
 10
0.392
 20
0.189
 30
0
  0
SEQEND
  0
POLYLINE
  8
0
  6
Solid
 62
7
 66
1
 10
0
 20
0
 30
0
 40
0
 41
0
  0
VERTEX
  8
0
  6
Solid
 62
7
 10
0.422
 20
0.189
 30
0
  0
VERTEX
  8
0
  6
Solid
 62
7
 10
0.5
 20
0.189
 30
0
  0
SEQEND
  0
POLYLINE
  8
0
  6
Solid
 62
7
 66
1
 10
0
 20
0
 30
0
 40
0
 41
0
  0
VERTEX
  8
0
  6
Solid
 62
7
 10
0
 20
0.159
 30
0
  0
VERTEX
  8
0
  6
Solid
 62
7
 10
0.064
 20
0.159
 30
0
  0
SEQEND
  0
POLYLINE
  8
0
  6
Solid
 62
7
 66
1
 10
0
 20
0
 30
0
 40
0
 41
0
  0
VERTEX
  8
0
  6
Solid
 62
7
 10
0.108
 20
0.159
 30
0
  0
VERTEX
  8
0
  6
Solid
 62
7
 10
0.196
 20
0.159
 30
0
  0
SEQEND
  0
POLYLINE
  8
0
  6
Solid
 62
7
 66
1
 10
0
 20
0
 30
0
 40
0
 41
0
  0
VERTEX
  8
0
  6
Solid
 62
7
 10
0.23
 20
0.159
 30
0
  0
VERTEX
  8
0
  6
Solid
 62
7
 10
0.392
 20
0.159
 30
0
  0
SEQEND
  0
POLYLINE
  8
0
  6
Solid
 62
7
 66
1
 10
0
 20
0
 30
0
 40
0
 41
0
  0
VERTEX
  8
0
  6
Solid
 62
7
 10
0.422
 20
0.159
 30
0
  0
VERTEX
  8
0
  6
Solid
 62
7
 10
0.5
 20
0.159
 30
0
  0
SEQEND
  0
POLYLINE
  8
0
  6
Solid
 62
7
 66
1
 10
0
 20
0
 30
0
 40
0
 41
0
  0
VERTEX
  8
0
  6
Solid
 62
7
 10
0
 20
0.495
 30
0
  0
VERTEX
  8
0
  6
Solid
 62
7
 10
0.172
 20
0.495
 30
0
  0
SEQEND
  0
POLYLINE
  8
0
  6
Solid
 62
7
 66
1
 10
0
 20
0
 30
0
 40
0
 41
0
  0
VERTEX
  8
0
  6
Solid
 62
7
 10
0.216
 20
0.495
 30
0
  0
VERTEX
  8
0
  6
Solid
 62
7
 10
0.294
 20
0.495
 30
0
  0
SEQEND
  0
POLYLINE
  8
0
  6
Solid
 62
7
 66
1
 10
0
 20
0
 30
0
 40
0
 41
0
  0
VERTEX
  8
0
  6
Solid
 62
7
 10
0.343
 20
0.495
 30
0
  0
VERTEX
  8
0
  6
Solid
 62
7
 10
0.441
 20
0.495
 30
0
  0
SEQEND
  0
POLYLINE
  8
0
  6
Solid
 62
7
 66
1
 10
0
 20
0
 30
0
 40
0
 41
0
  0
VERTEX
  8
0
  6
Solid
 62
7
 10
0.461
 20
0.495
 30
0
  0
VERTEX
  8
0
  6
Solid
 62
7
 10
0.5
 20
0.495
 30
0
  0
SEQEND
  0
POLYLINE
  8
0
  6
Solid
 62
7
 66
1
 10
0
 20
0
 30
0
 40
0
 41
0
  0
VERTEX
  8
0
  6
Solid
 62
7
 10
0
 20
0.465
 30
0
  0
VERTEX
  8
0
  6
Solid
 62
7
 10
0.147
 20
0.465
 30
0
  0
SEQEND
  0
POLYLINE
  8
0
  6
Solid
 62
7
 66
1
 10
0
 20
0
 30
0
 40
0
 41
0
  0
VERTEX
  8
0
  6
Solid
 62
7
 10
0.186
 20
0.465
 30
0
  0
VERTEX
  8
0
  6
Solid
 62
7
 10
0.319
 20
0.465
 30
0
  0
SEQEND
  0
POLYLINE
  8
0
  6
Solid
 62
7
 66
1
 10
0
 20
0
 30
0
 40
0
 41
0
  0
VERTEX
  8
0
  6
Solid
 62
7
 10
0.358
 20
0.465
 30
0
  0
VERTEX
  8
0
  6
Solid
 62
7
 10
0.446
 20
0.465
 30
0
  0
SEQEND
  0
POLYLINE
  8
0
  6
Solid
 62
7
 66
1
 10
0
 20
0
 30
0
 40
0
 41
0
  0
VERTEX
  8
0
  6
Solid
 62
7
 10
0.471
 20
0.465
 30
0
  0
VERTEX
  8
0
  6
Solid
 62
7
 10
0.5
 20
0.465
 30
0
  0
SEQEND
  0
ENDSEC
  0
EOF
