  0
SECTION
  2
HEADER
  9
$ACADVER
  1
AC1009
  9
$DWGCODEPAGE
  3
ansi_1252
  9
$INSBASE
 10
0.0
 20
0.0
 30
0.0
  9
$EXTMIN
 10
-0.05
 20
-0.05
 30
0.0
  9
$EXTMAX
 10
1.05
 20
1.05
 30
0.0
  9
$LIMMIN
 10
0.0
 20
0.0
  9
$LIMMAX
 10
12.0
 20
9.0
  9
$ORTHOMODE
 70
     0
  9
$REGENMODE
 70
     1
  9
$FILLMODE
 70
     1
  9
$QTEXTMODE
 70
     0
  9
$MIRRTEXT
 70
     1
  9
$DRAGMODE
 70
     2
  9
$LTSCALE
 40
1.0
  9
$OSMODE
 70
    37
  9
$ATTMODE
 70
     1
  9
$TEXTSIZE
 40
0.2
  9
$TRACEWID
 40
0.05
  9
$TEXTSTYLE
  7
STANDARD
  9
$CLAYER
  8
0
  9
$CELTYPE
  6
BYLAYER
  9
$CECOLOR
 62
   256
  9
$DIMSCALE
 40
1.0
  9
$DIMASZ
 40
0.18
  9
$DIMEXO
 40
0.0625
  9
$DIMDLI
 40
0.38
  9
$DIMRND
 40
0.0
  9
$DIMDLE
 40
0.0
  9
$DIMEXE
 40
0.18
  9
$DIMTP
 40
0.0
  9
$DIMTM
 40
0.0
  9
$DIMTXT
 40
0.18
  9
$DIMCEN
 40
0.09
  9
$DIMTSZ
 40
0.0
  9
$DIMTOL
 70
     0
  9
$DIMLIM
 70
     0
  9
$DIMTIH
 70
     1
  9
$DIMTOH
 70
     1
  9
$DIMSE1
 70
     0
  9
$DIMSE2
 70
     0
  9
$DIMTAD
 70
     0
  9
$DIMZIN
 70
     0
  9
$DIMBLK
  1

  9
$DIMASO
 70
     1
  9
$DIMSHO
 70
     1
  9
$DIMPOST
  1

  9
$DIMAPOST
  1

  9
$DIMALT
 70
     0
  9
$DIMALTD
 70
     2
  9
$DIMALTF
 40
25.4
  9
$DIMLFAC
 40
1.0
  9
$DIMTOFL
 70
     0
  9
$DIMTVP
 40
0.0
  9
$DIMTIX
 70
     0
  9
$DIMSOXD
 70
     0
  9
$DIMSAH
 70
     0
  9
$DIMBLK1
  1

  9
$DIMBLK2
  1

  9
$DIMSTYLE
  2
STANDARD
  9
$DIMCLRD
 70
     0
  9
$DIMCLRE
 70
     0
  9
$DIMCLRT
 70
     0
  9
$DIMTFAC
 40
1.0
  9
$DIMGAP
 40
0.09
  9
$LUNITS
 70
     2
  9
$LUPREC
 70
     4
  9
$SKETCHINC
 40
0.1
  9
$FILLETRAD
 40
0.5
  9
$AUNITS
 70
     0
  9
$AUPREC
 70
     0
  9
$MENU
  1
.
  9
$ELEVATION
 40
0.0
  9
$PELEVATION
 40
0.0
  9
$THICKNESS
 40
0.0
  9
$LIMCHECK
 70
     0
  9
$CHAMFERA
 40
0.5
  9
$CHAMFERB
 40
0.5
  9
$SKPOLY
 70
     0
  9
$TDCREATE
 40
2454508.618668368
  9
$TDUPDATE
 40
2454508.618968368
  9
$TDINDWG
 40
0.0000000116
  9
$TDUSRTIMER
 40
0.0000000116
  9
$USRTIMER
 70
     1
  9
$ANGBASE
 50
0.0
  9
$ANGDIR
 70
     0
  9
$PDMODE
 70
     0
  9
$PDSIZE
 40
0.0
  9
$PLINEWID
 40
0.0
  9
$COORDS
 70
     1
  9
$SPLFRAME
 70
     0
  9
$SPLINETYPE
 70
     6
  9
$SPLINESEGS
 70
     8
  9
$ATTDIA
 70
     0
  9
$ATTREQ
 70
     1
  9
$HANDLING
 70
     1
  9
$HANDSEED
  5
91F
  9
$SURFTAB1
 70
     6
  9
$SURFTAB2
 70
     6
  9
$SURFTYPE
 70
     6
  9
$SURFU
 70
     6
  9
$SURFV
 70
     6
  9
$UCSNAME
  2

  9
$UCSORG
 10
0.0
 20
0.0
 30
0.0
  9
$UCSXDIR
 10
1.0
 20
0.0
 30
0.0
  9
$UCSYDIR
 10
0.0
 20
1.0
 30
0.0
  9
$PUCSNAME
  2

  9
$PUCSORG
 10
0.0
 20
0.0
 30
0.0
  9
$PUCSXDIR
 10
1.0
 20
0.0
 30
0.0
  9
$PUCSYDIR
 10
0.0
 20
1.0
 30
0.0
  9
$USERI1
 70
     0
  9
$USERI2
 70
     0
  9
$USERI3
 70
     0
  9
$USERI4
 70
     0
  9
$USERI5
 70
     0
  9
$USERR1
 40
0.0
  9
$USERR2
 40
0.0
  9
$USERR3
 40
0.0
  9
$USERR4
 40
0.0
  9
$USERR5
 40
0.0
  9
$WORLDVIEW
 70
     1
  9
$SHADEDGE
 70
     3
  9
$SHADEDIF
 70
    70
  9
$TILEMODE
 70
     1
  9
$MAXACTVP
 70
    64
  9
$PLIMCHECK
 70
     0
  9
$PEXTMIN
 10
1.000000E+20
 20
1.000000E+20
 30
1.000000E+20
  9
$PEXTMAX
 10
-1.000000E+20
 20
-1.000000E+20
 30
-1.000000E+20
  9
$PLIMMIN
 10
0.0
 20
0.0
  9
$PLIMMAX
 10
12.0
 20
9.0
  9
$UNITMODE
 70
     0
  9
$VISRETAIN
 70
     1
  9
$PLINEGEN
 70
     0
  9
$PSLTSCALE
 70
     1
  0
ENDSEC
  0
SECTION
  2
TABLES
  0
TABLE
  2
VPORT
 70
     1
  0
VPORT
  2
*ACTIVE
 70
     0
 10
0.0
 20
0.0
 11
1.0
 21
1.0
 12
0.322344
 22
0.5
 13
0.0
 23
0.0
 14
1.0
 24
1.0
 15
0.0
 25
0.0
 16
0.0
 26
0.0
 36
1.0
 17
0.0
 27
0.0
 37
0.0
 40
1.1
 41
1.53699
 42
50.0
 43
0.0
 44
0.0
 50
0.0
 51
0.0
 71
     0
 72
   100
 73
     1
 74
     1
 75
     0
 76
     0
 77
     0
 78
     0
  0
ENDTAB
  0
TABLE
  2
LTYPE
 70
    17
  0
LTYPE
  2
CONTINUOUS
 70
     0
  3
Solid line
 72
    65
 73
     0
 40
0.0
  0
LTYPE
  2
SOLID
 70
     0
  3
______
 72
    65
 73
     0
 40
0.0
  0
LTYPE
  2
DASH
 70
     0
  3
_ _ _ _ _ _
 72
    65
 73
     2
 40
0.12
 49
0.08
 49
-0.04
  0
LTYPE
  2
DOT
 70
     0
  3
. . . . . .
 72
    65
 73
     2
 40
0.04
 49
0.0
 49
-0.04
  0
LTYPE
  2
DASH-DOT
 70
     0
  3
_ . _ . _ . _ .
 72
    65
 73
     4
 40
0.14
 49
0.06
 49
-0.04
 49
0.0
 49
-0.04
  0
LTYPE
  2
DASH-DOT-DOT
 70
     0
  3
_ . . _ . . _ . .
 72
    65
 73
     6
 40
0.18
 49
0.06
 49
-0.04
 49
0.0
 49
-0.04
 49
0.0
 49
-0.04
  0
LTYPE
  2
DASH-DASH-DOT
 70
     0
  3
_ _ . _ _ . _ _ .
 72
    65
 73
     6
 40
0.24
 49
0.06
 49
-0.04
 49
0.06
 49
-0.04
 49
0.0
 49
-0.04
  0
LTYPE
  2
DASH2
 70
     0
  3
__ __ __ __ __ __
 72
    65
 73
     2
 40
0.16
 49
0.12
 49
-0.04
  0
LTYPE
  2
DOT2
 70
     0
  3
.  .  .  .  .  .
 72
    65
 73
     2
 40
0.06
 49
0.0
 49
-0.06
  0
LTYPE
  2
DASH-DOT2
 70
     0
  3
__ . __ . __ . __ .
 72
    65
 73
     4
 40
0.17
 49
0.09
 49
-0.04
 49
0.0
 49
-0.04
  0
LTYPE
  2
DASH-DOT-DOT2
 70
     0
  3
__ . . __ . . __ . . __ . .
 72
    65
 73
     6
 40
0.21
 49
0.09
 49
-0.04
 49
0.0
 49
-0.04
 49
0.0
 49
-0.04
  0
LTYPE
  2
DASH-DASH-DOT2
 70
     0
  3
__ __ . __ __ . __ __ .
 72
    65
 73
     6
 40
0.3
 49
0.09
 49
-0.04
 49
0.09
 49
-0.04
 49
0.0
 49
-0.04
  0
LTYPE
  2
DASH3
 70
     0
  3
___  ___  ___  ___
 72
    65
 73
     2
 40
0.22
 49
0.16
 49
-0.06
  0
LTYPE
  2
DOT3
 70
     0
  3
.   .   .   .   .   .
 72
    65
 73
     2
 40
0.08
 49
0.0
 49
-0.08
  0
LTYPE
  2
DASH-DOT3
 70
     0
  3
___  .  ___  .  __   . ___  .
 72
    65
 73
     4
 40
0.24
 49
0.12
 49
-0.06
 49
0.0
 49
-0.06
  0
LTYPE
  2
DASH-DOT-DOT3
 70
     0
  3
___  .  .  ___  .  .  ___  .  .
 72
    65
 73
     6
 40
0.3
 49
0.12
 49
-0.06
 49
0.0
 49
-0.06
 49
0.0
 49
-0.06
  0
LTYPE
  2
DASH-DASH-DOT3
 70
     0
  3
___  ___  .  ___  ___  .  ___  ___  .
 72
    65
 73
     6
 40
0.42
 49
0.12
 49
-0.06
 49
0.12
 49
-0.06
 49
0.0
 49
-0.06
  0
ENDTAB
  0
TABLE
  2
LAYER
 70
     1
  0
LAYER
  2
0
 70
     0
 62
     7
  6
SOLID
  0
ENDTAB
  0
TABLE
  2
STYLE
 70
     1
  0
STYLE
  2
STANDARD
 70
     0
 40
0.0
 41
1.0
 50
0.0
 71
     0
 42
0.2
  3
txt
  4

  0
ENDTAB
  0
TABLE
  2
VIEW
 70
     0
  0
ENDTAB
  0
TABLE
  2
UCS
 70
     0
  0
ENDTAB
  0
TABLE
  2
APPID
 70
     6
  0
APPID
  2
ACAD
 70
     0
  0
APPID
  2
AVE_ENTITY_MATERIAL
 70
     0
  0
APPID
  2
AVE_MATERIAL
 70
     0
  0
APPID
  2
AVE_FINISH
 70
     0
  0
APPID
  2
AVE_GLOBAL
 70
     0
  0
APPID
  2
AVE_RENDER
 70
     0
  0
ENDTAB
  0
TABLE
  2
DIMSTYLE
 70
     1
  0
DIMSTYLE
  2
STANDARD
 70
     0
  3

  4

  5

  6

  7

 40
1.0
 41
0.18
 42
0.0625
 43
0.38
 44
0.18
 45
0.0
 46
0.0
 47
0.0
 48
0.0
140
0.18
141
0.09
142
0.0
143
25.4
144
1.0
145
0.0
146
1.0
147
0.09
 71
     0
 72
     0
 73
     1
 74
     1
 75
     0
 76
     0
 77
     0
 78
     0
170
     0
171
     2
172
     0
173
     0
174
     0
175
     0
176
     0
177
     0
178
     0
  0
ENDTAB
  0
ENDSEC
  0
SECTION
  2
BLOCKS
  0
BLOCK
  8
0
  2
$MODEL_SPACE
 70
     0
 10
0.0
 20
0.0
 30
0.0
  3
$MODEL_SPACE
  1

  0
ENDBLK
  5
5C8
  8
0
  0
BLOCK
 67
     1
  8
0
  2
$PAPER_SPACE
 70
     0
 10
0.0
 20
0.0
 30
0.0
  3
$PAPER_SPACE
  1

  0
ENDBLK
  5
5CA
 67
     1
  8
0
  0
ENDSEC
  0
SECTION
  2
ENTITIES
  0
SOLID
  5
33
  8
0
 62
     7
 10
0.357557
 20
0.226611
 30
0.0
 11
0.338977
 21
0.232807
 31
0.0
 12
0.357557
 22
0.226611
 32
0.0
 13
0.334332
 23
0.221964
 33
0.0
  0
SOLID
  5
34
  8
0
 62
     7
 10
0.433423
 20
0.356722
 30
0.0
 11
0.42723
 21
0.352076
 31
0.0
 12
0.433423
 22
0.356722
 32
0.0
 13
0.430327
 23
0.331939
 33
0.0
  0
SOLID
  5
35
  8
0
 62
     7
 10
0.455099
 20
0.342782
 30
0.0
 11
0.433423
 21
0.356722
 31
0.0
 12
0.455099
 22
0.342782
 32
0.0
 13
0.430327
 23
0.331939
 33
0.0
  0
SOLID
  5
36
  8
0
 62
     7
 10
0.433423
 20
0.161555
 30
0.0
 11
0.442713
 21
0.1693
 31
0.0
 12
0.433423
 22
0.161555
 32
0.0
 13
0.452003
 23
0.181691
 33
0.0
  0
SOLID
  5
37
  8
0
 62
     7
 10
0.459744
 20
0.328841
 30
0.0
 11
0.455099
 21
0.342782
 31
0.0
 12
0.459744
 22
0.328841
 32
0.0
 13
0.430327
 23
0.331939
 33
0.0
  0
SOLID
  5
38
  8
0
 62
     7
 10
0.459744
 20
0.328841
 30
0.0
 11
0.430327
 21
0.331939
 31
0.0
 12
0.459744
 22
0.328841
 32
0.0
 13
0.43652
 23
0.311803
 33
0.0
  0
SOLID
  5
39
  8
0
 62
     7
 10
0.464389
 20
0.308705
 30
0.0
 11
0.459744
 21
0.328841
 31
0.0
 12
0.464389
 22
0.308705
 32
0.0
 13
0.43652
 23
0.311803
 33
0.0
  0
SOLID
  5
3A
  8
0
 62
     7
 10
0.386974
 20
0.187887
 30
0.0
 11
0.377684
 21
0.201828
 31
0.0
 12
0.386974
 22
0.187887
 32
0.0
 13
0.368395
 23
0.211121
 33
0.0
  0
SOLID
  5
3B
  8
0
 62
     7
 10
0.419489
 20
0.195632
 30
0.0
 11
0.411747
 21
0.189436
 31
0.0
 12
0.419489
 22
0.195632
 32
0.0
 13
0.402457
 23
0.170849
 33
0.0
  0
SOLID
  5
3C
  8
0
 62
     7
 10
0.464389
 20
0.308705
 30
0.0
 11
0.43652
 21
0.311803
 31
0.0
 12
0.464389
 22
0.308705
 32
0.0
 13
0.43652
 23
0.291667
 33
0.0
  0
SOLID
  5
3D
  8
0
 62
     7
 10
0.467486
 20
0.285471
 30
0.0
 11
0.464389
 21
0.308705
 31
0.0
 12
0.467486
 22
0.285471
 32
0.0
 13
0.43652
 23
0.291667
 33
0.0
  0
SOLID
  5
3E
  8
0
 62
     7
 10
0.458196
 20
0.268432
 30
0.0
 11
0.467486
 21
0.285471
 31
0.0
 12
0.458196
 22
0.268432
 32
0.0
 13
0.43652
 23
0.291667
 33
0.0
  0
SOLID
  5
3F
  8
0
 62
     7
 10
0.458196
 20
0.268432
 30
0.0
 11
0.43652
 21
0.291667
 31
0.0
 12
0.458196
 22
0.268432
 32
0.0
 13
0.428778
 23
0.263786
 33
0.0
  0
SOLID
  5
40
  8
0
 62
     7
 10
0.455099
 20
0.248296
 30
0.0
 11
0.458196
 21
0.268432
 31
0.0
 12
0.455099
 22
0.248296
 32
0.0
 13
0.428778
 23
0.263786
 33
0.0
  0
SOLID
  5
41
  8
0
 62
     7
 10
0.4
 20
0.0
 30
0.0
 11
0.44
 21
0.0
 31
0.0
 12
0.4
 22
0.0
 32
0.0
 13
0.430327
 23
0.017503
 33
0.0
  0
SOLID
  5
42
  8
0
 62
     7
 10
0.368395
 20
0.211121
 30
0.0
 11
0.357557
 21
0.226611
 31
0.0
 12
0.368395
 22
0.211121
 32
0.0
 13
0.334332
 23
0.221964
 33
0.0
  0
SOLID
  5
43
  8
0
 62
     7
 10
0.425682
 20
0.032993
 30
0.0
 11
0.422585
 21
0.046933
 31
0.0
 12
0.425682
 22
0.032993
 32
0.0
 13
0.414844
 23
0.067069
 33
0.0
  0
SOLID
  5
44
  8
0
 62
     7
 10
0.455099
 20
0.248296
 30
0.0
 11
0.428778
 21
0.263786
 31
0.0
 12
0.455099
 22
0.248296
 32
0.0
 13
0.422585
 23
0.229709
 33
0.0
  0
SOLID
  5
45
  8
0
 62
     7
 10
0.448906
 20
0.225062
 30
0.0
 11
0.455099
 21
0.248296
 31
0.0
 12
0.448906
 22
0.225062
 32
0.0
 13
0.422585
 23
0.229709
 33
0.0
  0
SOLID
  5
46
  8
0
 62
     7
 10
0.448906
 20
0.225062
 30
0.0
 11
0.422585
 21
0.229709
 31
0.0
 12
0.448906
 22
0.225062
 32
0.0
 13
0.422585
 23
0.215768
 33
0.0
  0
SOLID
  5
47
  8
0
 62
     7
 10
0.452003
 20
0.201828
 30
0.0
 11
0.448906
 21
0.225062
 31
0.0
 12
0.452003
 22
0.201828
 32
0.0
 13
0.422585
 23
0.215768
 33
0.0
  0
SOLID
  5
48
  8
0
 62
     7
 10
0.452003
 20
0.201828
 30
0.0
 11
0.422585
 21
0.215768
 31
0.0
 12
0.452003
 22
0.201828
 32
0.0
 13
0.419489
 23
0.195632
 33
0.0
  0
SOLID
  5
49
  8
0
 62
     7
 10
0.452003
 20
0.181691
 30
0.0
 11
0.452003
 21
0.201828
 31
0.0
 12
0.452003
 22
0.181691
 32
0.0
 13
0.419489
 23
0.195632
 33
0.0
  0
SOLID
  5
4A
  8
0
 62
     7
 10
0.433423
 20
0.161555
 30
0.0
 11
0.452003
 21
0.181691
 31
0.0
 12
0.433423
 22
0.161555
 32
0.0
 13
0.419489
 23
0.195632
 33
0.0
  0
SOLID
  5
4B
  8
0
 62
     7
 10
0.433423
 20
0.161555
 30
0.0
 11
0.419489
 21
0.195632
 31
0.0
 12
0.433423
 22
0.161555
 32
0.0
 13
0.402457
 23
0.170849
 33
0.0
  0
SOLID
  5
4C
  8
0
 62
     7
 10
0.419489
 20
0.15381
 30
0.0
 11
0.433423
 21
0.161555
 31
0.0
 12
0.419489
 22
0.15381
 32
0.0
 13
0.402457
 23
0.170849
 33
0.0
  0
SOLID
  5
4D
  8
0
 62
     7
 10
0.419489
 20
0.15381
 30
0.0
 11
0.402457
 21
0.170849
 31
0.0
 12
0.419489
 22
0.15381
 32
0.0
 13
0.397812
 23
0.173947
 33
0.0
  0
SOLID
  5
4E
  8
0
 62
     7
 10
0.413295
 20
0.141419
 30
0.0
 11
0.419489
 21
0.15381
 31
0.0
 12
0.413295
 22
0.141419
 32
0.0
 13
0.397812
 23
0.173947
 33
0.0
  0
SOLID
  5
4F
  8
0
 62
     7
 10
0.368395
 20
0.211121
 30
0.0
 11
0.334332
 21
0.221964
 31
0.0
 12
0.368395
 22
0.211121
 32
0.0
 13
0.33588
 23
0.192534
 33
0.0
  0
SOLID
  5
50
  8
0
 62
     7
 10
0.41794
 20
0.085657
 30
0.0
 11
0.41794
 21
0.11044
 31
0.0
 12
0.41794
 22
0.085657
 32
0.0
 13
0.413295
 23
0.125929
 33
0.0
  0
SOLID
  5
51
  8
0
 62
     7
 10
0.4
 20
0.0
 30
0.0
 11
0.430327
 21
0.017503
 31
0.0
 12
0.4
 22
0.0
 32
0.0
 13
0.425682
 23
0.032993
 33
0.0
  0
SOLID
  5
52
  8
0
 62
     7
 10
0.385426
 20
0.045384
 30
0.0
 11
0.4
 21
0.0
 31
0.0
 12
0.385426
 22
0.045384
 32
0.0
 13
0.425682
 23
0.032993
 33
0.0
  0
SOLID
  5
53
  8
0
 62
     7
 10
0.385426
 20
0.045384
 30
0.0
 11
0.425682
 21
0.032993
 31
0.0
 12
0.385426
 22
0.045384
 32
0.0
 13
0.414844
 23
0.067069
 33
0.0
  0
SOLID
  5
54
  8
0
 62
     7
 10
0.379233
 20
0.079461
 30
0.0
 11
0.385426
 21
0.045384
 31
0.0
 12
0.379233
 22
0.079461
 32
0.0
 13
0.414844
 23
0.067069
 33
0.0
  0
SOLID
  5
55
  8
0
 62
     7
 10
0.379233
 20
0.079461
 30
0.0
 11
0.414844
 21
0.067069
 31
0.0
 12
0.379233
 22
0.079461
 32
0.0
 13
0.41794
 23
0.085657
 33
0.0
  0
SOLID
  5
56
  8
0
 62
     7
 10
0.383878
 20
0.102695
 30
0.0
 11
0.379233
 21
0.079461
 31
0.0
 12
0.383878
 22
0.102695
 32
0.0
 13
0.41794
 23
0.085657
 33
0.0
  0
SOLID
  5
57
  8
0
 62
     7
 10
0.383878
 20
0.102695
 30
0.0
 11
0.41794
 21
0.085657
 31
0.0
 12
0.383878
 22
0.102695
 32
0.0
 13
0.413295
 23
0.125929
 33
0.0
  0
SOLID
  5
58
  8
0
 62
     7
 10
0.383878
 20
0.122831
 30
0.0
 11
0.383878
 21
0.102695
 31
0.0
 12
0.383878
 22
0.122831
 32
0.0
 13
0.413295
 23
0.125929
 33
0.0
  0
SOLID
  5
59
  8
0
 62
     7
 10
0.383878
 20
0.122831
 30
0.0
 11
0.413295
 21
0.125929
 31
0.0
 12
0.383878
 22
0.122831
 32
0.0
 13
0.413295
 23
0.141419
 33
0.0
  0
SOLID
  5
5A
  8
0
 62
     7
 10
0.371491
 20
0.150713
 30
0.0
 11
0.383878
 21
0.122831
 31
0.0
 12
0.371491
 22
0.150713
 32
0.0
 13
0.413295
 23
0.141419
 33
0.0
  0
SOLID
  5
5B
  8
0
 62
     7
 10
0.371491
 20
0.150713
 30
0.0
 11
0.413295
 21
0.141419
 31
0.0
 12
0.371491
 22
0.150713
 32
0.0
 13
0.397812
 23
0.173947
 33
0.0
  0
SOLID
  5
5C
  8
0
 62
     7
 10
0.371491
 20
0.150713
 30
0.0
 11
0.397812
 21
0.173947
 31
0.0
 12
0.371491
 22
0.150713
 32
0.0
 13
0.386974
 23
0.187887
 33
0.0
  0
SOLID
  5
5D
  8
0
 62
     7
 10
0.35446
 20
0.167751
 30
0.0
 11
0.371491
 21
0.150713
 31
0.0
 12
0.35446
 22
0.167751
 32
0.0
 13
0.386974
 23
0.187887
 33
0.0
  0
SOLID
  5
5E
  8
0
 62
     7
 10
0.35446
 20
0.167751
 30
0.0
 11
0.386974
 21
0.187887
 31
0.0
 12
0.35446
 22
0.167751
 32
0.0
 13
0.368395
 23
0.211121
 33
0.0
  0
SOLID
  5
5F
  8
0
 62
     7
 10
0.35446
 20
0.167751
 30
0.0
 11
0.368395
 21
0.211121
 31
0.0
 12
0.35446
 22
0.167751
 32
0.0
 13
0.33588
 23
0.192534
 33
0.0
  0
SOLID
  5
60
  8
0
 62
     7
 10
0.493807
 20
0.031444
 30
0.0
 11
0.5
 21
0.028346
 31
0.0
 12
0.493807
 22
0.031444
 32
0.0
 13
0.506193
 23
0.028346
 33
0.0
  0
SOLID
  5
61
  8
0
 62
     7
 10
0.724503
 20
0.09495
 30
0.0
 11
0.733793
 21
0.102695
 31
0.0
 12
0.724503
 22
0.09495
 32
0.0
 13
0.733793
 23
0.104244
 33
0.0
  0
SOLID
  5
62
  8
0
 62
     7
 10
0.489162
 20
0.03609
 30
0.0
 11
0.493807
 21
0.031444
 31
0.0
 12
0.489162
 22
0.03609
 32
0.0
 13
0.506193
 23
0.028346
 33
0.0
  0
SOLID
  5
63
  8
0
 62
     7
 10
0.473679
 20
0.09495
 30
0.0
 11
0.479872
 21
0.107342
 31
0.0
 12
0.473679
 22
0.09495
 32
0.0
 13
0.478324
 23
0.113538
 33
0.0
  0
SOLID
  5
64
  8
0
 62
     7
 10
0.650185
 20
0.012856
 30
0.0
 11
0.657926
 21
0.017503
 31
0.0
 12
0.650185
 22
0.012856
 32
0.0
 13
0.657926
 23
0.031444
 33
0.0
  0
SOLID
  5
65
  8
0
 62
     7
 10
0.659475
 20
0.091853
 30
0.0
 11
0.651733
 21
0.085657
 31
0.0
 12
0.659475
 22
0.091853
 32
0.0
 13
0.643992
 23
0.074814
 33
0.0
  0
SOLID
  5
66
  8
0
 62
     7
 10
0.459744
 20
0.045384
 30
0.0
 11
0.473679
 21
0.03609
 31
0.0
 12
0.459744
 22
0.045384
 32
0.0
 13
0.482969
 23
0.03609
 33
0.0
  0
SOLID
  5
67
  8
0
 62
     7
 10
0.473679
 20
0.13987
 30
0.0
 11
0.456648
 21
0.149164
 31
0.0
 12
0.473679
 22
0.13987
 32
0.0
 13
0.447358
 23
0.142968
 33
0.0
  0
SOLID
  5
68
  8
0
 62
     7
 10
0.489162
 20
0.03609
 30
0.0
 11
0.506193
 21
0.028346
 31
0.0
 12
0.489162
 22
0.03609
 32
0.0
 13
0.515483
 23
0.028346
 33
0.0
  0
SOLID
  5
69
  8
0
 62
     7
 10
0.571222
 20
0.040737
 30
0.0
 11
0.561932
 21
0.045384
 31
0.0
 12
0.571222
 22
0.040737
 32
0.0
 13
0.544901
 23
0.050031
 33
0.0
  0
SOLID
  5
6A
  8
0
 62
     7
 10
0.637799
 20
0.060874
 30
0.0
 11
0.633154
 21
0.048482
 31
0.0
 12
0.637799
 22
0.060874
 32
0.0
 13
0.628509
 23
0.034542
 33
0.0
  0
SOLID
  5
6B
  8
0
 62
     7
 10
0.733793
 20
0.104244
 30
0.0
 11
0.722955
 21
0.127478
 31
0.0
 12
0.733793
 22
0.104244
 32
0.0
 13
0.715213
 23
0.125929
 33
0.0
  0
SOLID
  5
6C
  8
0
 62
     7
 10
0.707472
 20
0.091853
 30
0.0
 11
0.724503
 21
0.09495
 31
0.0
 12
0.707472
 22
0.091853
 32
0.0
 13
0.733793
 23
0.104244
 33
0.0
  0
SOLID
  5
6D
  8
0
 62
     7
 10
0.515483
 20
0.028346
 30
0.0
 11
0.530966
 21
0.019052
 31
0.0
 12
0.515483
 22
0.028346
 32
0.0
 13
0.541804
 23
0.015954
 33
0.0
  0
SOLID
  5
6E
  8
0
 62
     7
 10
0.679603
 20
0.05158
 30
0.0
 11
0.691989
 21
0.063971
 31
0.0
 12
0.679603
 22
0.05158
 32
0.0
 13
0.695086
 23
0.076363
 33
0.0
  0
SOLID
  5
6F
  8
0
 62
     7
 10
0.657926
 20
0.031444
 30
0.0
 11
0.661023
 21
0.032993
 31
0.0
 12
0.657926
 22
0.031444
 32
0.0
 13
0.679603
 23
0.05158
 33
0.0
  0
SOLID
  5
70
  8
0
 62
     7
 10
0.459744
 20
0.045384
 30
0.0
 11
0.482969
 21
0.03609
 31
0.0
 12
0.459744
 22
0.045384
 32
0.0
 13
0.489162
 23
0.03609
 33
0.0
  0
SOLID
  5
71
  8
0
 62
     7
 10
0.438068
 20
0.091853
 30
0.0
 11
0.438068
 21
0.071716
 31
0.0
 12
0.438068
 22
0.091853
 32
0.0
 13
0.444261
 23
0.060874
 33
0.0
  0
SOLID
  5
72
  8
0
 62
     7
 10
0.715213
 20
0.125929
 30
0.0
 11
0.698182
 21
0.125929
 31
0.0
 12
0.715213
 22
0.125929
 32
0.0
 13
0.687344
 23
0.11044
 33
0.0
  0
SOLID
  5
73
  8
0
 62
     7
 10
0.447358
 20
0.142968
 30
0.0
 11
0.439616
 21
0.121283
 31
0.0
 12
0.447358
 22
0.142968
 32
0.0
 13
0.439616
 23
0.111989
 33
0.0
  0
SOLID
  5
74
  8
0
 62
     7
 10
0.687344
 20
0.11044
 30
0.0
 11
0.674958
 21
0.104244
 31
0.0
 12
0.687344
 22
0.11044
 32
0.0
 13
0.659475
 23
0.091853
 33
0.0
  0
SOLID
  5
75
  8
0
 62
     7
 10
0.544901
 20
0.050031
 30
0.0
 11
0.524773
 21
0.059325
 31
0.0
 12
0.544901
 22
0.050031
 32
0.0
 13
0.513935
 23
0.063971
 33
0.0
  0
SOLID
  5
76
  8
0
 62
     7
 10
0.707472
 20
0.091853
 30
0.0
 11
0.733793
 21
0.104244
 31
0.0
 12
0.707472
 22
0.091853
 32
0.0
 13
0.715213
 23
0.125929
 33
0.0
  0
SOLID
  5
77
  8
0
 62
     7
 10
0.707472
 20
0.091853
 30
0.0
 11
0.715213
 21
0.125929
 31
0.0
 12
0.707472
 22
0.091853
 32
0.0
 13
0.687344
 23
0.11044
 33
0.0
  0
SOLID
  5
78
  8
0
 62
     7
 10
0.701279
 20
0.087206
 30
0.0
 11
0.707472
 21
0.091853
 31
0.0
 12
0.701279
 22
0.087206
 32
0.0
 13
0.687344
 23
0.11044
 33
0.0
  0
SOLID
  5
79
  8
0
 62
     7
 10
0.695086
 20
0.076363
 30
0.0
 11
0.701279
 21
0.087206
 31
0.0
 12
0.695086
 22
0.076363
 32
0.0
 13
0.687344
 23
0.11044
 33
0.0
  0
SOLID
  5
7A
  8
0
 62
     7
 10
0.659475
 20
0.091853
 30
0.0
 11
0.643992
 21
0.074814
 31
0.0
 12
0.659475
 22
0.091853
 32
0.0
 13
0.637799
 23
0.060874
 33
0.0
  0
SOLID
  5
7B
  8
0
 62
     7
 10
0.695086
 20
0.076363
 30
0.0
 11
0.687344
 21
0.11044
 31
0.0
 12
0.695086
 22
0.076363
 32
0.0
 13
0.659475
 23
0.091853
 33
0.0
  0
SOLID
  5
7C
  8
0
 62
     7
 10
0.541804
 20
0.015954
 30
0.0
 11
0.560384
 21
0.00666
 31
0.0
 12
0.541804
 22
0.015954
 32
0.0
 13
0.580511
 23
0.003563
 33
0.0
  0
SOLID
  5
7D
  8
0
 62
     7
 10
0.62696
 20
0.005112
 30
0.0
 11
0.650185
 21
0.012856
 31
0.0
 12
0.62696
 22
0.005112
 32
0.0
 13
0.657926
 23
0.031444
 33
0.0
  0
SOLID
  5
7E
  8
0
 62
     7
 10
0.478324
 20
0.113538
 30
0.0
 11
0.473679
 21
0.13987
 31
0.0
 12
0.478324
 22
0.113538
 32
0.0
 13
0.447358
 23
0.142968
 33
0.0
  0
SOLID
  5
7F
  8
0
 62
     7
 10
0.478324
 20
0.113538
 30
0.0
 11
0.447358
 21
0.142968
 31
0.0
 12
0.478324
 22
0.113538
 32
0.0
 13
0.439616
 23
0.111989
 33
0.0
  0
SOLID
  5
80
  8
0
 62
     7
 10
0.473679
 20
0.09495
 30
0.0
 11
0.478324
 21
0.113538
 31
0.0
 12
0.473679
 22
0.09495
 32
0.0
 13
0.439616
 23
0.111989
 33
0.0
  0
SOLID
  5
81
  8
0
 62
     7
 10
0.473679
 20
0.09495
 30
0.0
 11
0.439616
 21
0.111989
 31
0.0
 12
0.473679
 22
0.09495
 32
0.0
 13
0.438068
 23
0.091853
 33
0.0
  0
SOLID
  5
82
  8
0
 62
     7
 10
0.473679
 20
0.087206
 30
0.0
 11
0.473679
 21
0.09495
 31
0.0
 12
0.473679
 22
0.087206
 32
0.0
 13
0.438068
 23
0.091853
 33
0.0
  0
SOLID
  5
83
  8
0
 62
     7
 10
0.473679
 20
0.087206
 30
0.0
 11
0.438068
 21
0.091853
 31
0.0
 12
0.473679
 22
0.087206
 32
0.0
 13
0.444261
 23
0.060874
 33
0.0
  0
SOLID
  5
84
  8
0
 62
     7
 10
0.48142
 20
0.074814
 30
0.0
 11
0.473679
 21
0.087206
 31
0.0
 12
0.48142
 22
0.074814
 32
0.0
 13
0.444261
 23
0.060874
 33
0.0
  0
SOLID
  5
85
  8
0
 62
     7
 10
0.48142
 20
0.074814
 30
0.0
 11
0.444261
 21
0.060874
 31
0.0
 12
0.48142
 22
0.074814
 32
0.0
 13
0.459744
 23
0.045384
 33
0.0
  0
SOLID
  5
86
  8
0
 62
     7
 10
0.48142
 20
0.074814
 30
0.0
 11
0.459744
 21
0.045384
 31
0.0
 12
0.48142
 22
0.074814
 32
0.0
 13
0.489162
 23
0.03609
 33
0.0
  0
SOLID
  5
87
  8
0
 62
     7
 10
0.49071
 20
0.070167
 30
0.0
 11
0.48142
 21
0.074814
 31
0.0
 12
0.49071
 22
0.070167
 32
0.0
 13
0.489162
 23
0.03609
 33
0.0
  0
SOLID
  5
88
  8
0
 62
     7
 10
0.513935
 20
0.063971
 30
0.0
 11
0.49071
 21
0.070167
 31
0.0
 12
0.513935
 22
0.063971
 32
0.0
 13
0.489162
 23
0.03609
 33
0.0
  0
SOLID
  5
89
  8
0
 62
     7
 10
0.513935
 20
0.063971
 30
0.0
 11
0.489162
 21
0.03609
 31
0.0
 12
0.513935
 22
0.063971
 32
0.0
 13
0.515483
 23
0.028346
 33
0.0
  0
SOLID
  5
8A
  8
0
 62
     7
 10
0.544901
 20
0.050031
 30
0.0
 11
0.513935
 21
0.063971
 31
0.0
 12
0.544901
 22
0.050031
 32
0.0
 13
0.515483
 23
0.028346
 33
0.0
  0
SOLID
  5
8B
  8
0
 62
     7
 10
0.544901
 20
0.050031
 30
0.0
 11
0.515483
 21
0.028346
 31
0.0
 12
0.544901
 22
0.050031
 32
0.0
 13
0.541804
 23
0.015954
 33
0.0
  0
SOLID
  5
8C
  8
0
 62
     7
 10
0.571222
 20
0.040737
 30
0.0
 11
0.544901
 21
0.050031
 31
0.0
 12
0.571222
 22
0.040737
 32
0.0
 13
0.541804
 23
0.015954
 33
0.0
  0
SOLID
  5
8D
  8
0
 62
     7
 10
0.571222
 20
0.040737
 30
0.0
 11
0.541804
 21
0.015954
 31
0.0
 12
0.571222
 22
0.040737
 32
0.0
 13
0.580511
 23
0.003563
 33
0.0
  0
SOLID
  5
8E
  8
0
 62
     7
 10
0.58206
 20
0.037639
 30
0.0
 11
0.571222
 21
0.040737
 31
0.0
 12
0.58206
 22
0.037639
 32
0.0
 13
0.580511
 23
0.003563
 33
0.0
  0
SOLID
  5
8F
  8
0
 62
     7
 10
0.592898
 20
0.034542
 30
0.0
 11
0.58206
 21
0.037639
 31
0.0
 12
0.592898
 22
0.034542
 32
0.0
 13
0.580511
 23
0.003563
 33
0.0
  0
SOLID
  5
90
  8
0
 62
     7
 10
0.609929
 20
0.031444
 30
0.0
 11
0.592898
 21
0.034542
 31
0.0
 12
0.609929
 22
0.031444
 32
0.0
 13
0.580511
 23
0.003563
 33
0.0
  0
SOLID
  5
91
  8
0
 62
     7
 10
0.609929
 20
0.031444
 30
0.0
 11
0.580511
 21
0.003563
 31
0.0
 12
0.609929
 22
0.031444
 32
0.0
 13
0.62696
 23
0.005112
 33
0.0
  0
SOLID
  5
92
  8
0
 62
     7
 10
0.628509
 20
0.034542
 30
0.0
 11
0.609929
 21
0.031444
 31
0.0
 12
0.628509
 22
0.034542
 32
0.0
 13
0.62696
 23
0.005112
 33
0.0
  0
SOLID
  5
93
  8
0
 62
     7
 10
0.628509
 20
0.034542
 30
0.0
 11
0.62696
 21
0.005112
 31
0.0
 12
0.628509
 22
0.034542
 32
0.0
 13
0.657926
 23
0.031444
 33
0.0
  0
SOLID
  5
94
  8
0
 62
     7
 10
0.637799
 20
0.060874
 30
0.0
 11
0.628509
 21
0.034542
 31
0.0
 12
0.637799
 22
0.060874
 32
0.0
 13
0.657926
 23
0.031444
 33
0.0
  0
SOLID
  5
95
  8
0
 62
     7
 10
0.637799
 20
0.060874
 30
0.0
 11
0.657926
 21
0.031444
 31
0.0
 12
0.637799
 22
0.060874
 32
0.0
 13
0.679603
 23
0.05158
 33
0.0
  0
SOLID
  5
96
  8
0
 62
     7
 10
0.679603
 20
0.05158
 30
0.0
 11
0.695086
 21
0.076363
 31
0.0
 12
0.679603
 22
0.05158
 32
0.0
 13
0.659475
 23
0.091853
 33
0.0
  0
SOLID
  5
97
  8
0
 62
     7
 10
0.637799
 20
0.060874
 30
0.0
 11
0.679603
 21
0.05158
 31
0.0
 12
0.637799
 22
0.060874
 32
0.0
 13
0.659475
 23
0.091853
 33
0.0
  0
SOLID
  5
98
  8
0
 62
     7
 10
0.642443
 20
0.161555
 30
0.0
 11
0.62696
 21
0.160006
 31
0.0
 12
0.642443
 22
0.161555
 32
0.0
 13
0.630057
 23
0.142968
 33
0.0
  0
SOLID
  5
99
  8
0
 62
     7
 10
0.876236
 20
0.011307
 30
0.0
 11
0.891719
 21
0.012856
 31
0.0
 12
0.876236
 22
0.011307
 32
0.0
 13
0.891719
 23
0.028346
 33
0.0
  0
SOLID
  5
9A
  8
0
 62
     7
 10
0.653281
 20
0.152261
 30
0.0
 11
0.642443
 21
0.161555
 31
0.0
 12
0.653281
 22
0.152261
 32
0.0
 13
0.630057
 23
0.142968
 33
0.0
  0
SOLID
  5
9B
  8
0
 62
     7
 10
0.653281
 20
0.152261
 30
0.0
 11
0.630057
 21
0.142968
 31
0.0
 12
0.653281
 22
0.152261
 32
0.0
 13
0.653281
 23
0.125929
 33
0.0
  0
SOLID
  5
9C
  8
0
 62
     7
 10
0.839077
 20
0.084108
 30
0.0
 11
0.831336
 21
0.088755
 31
0.0
 12
0.839077
 22
0.084108
 32
0.0
 13
0.812756
 23
0.093401
 33
0.0
  0
SOLID
  5
9D
  8
0
 62
     7
 10
0.885526
 20
0.285471
 30
0.0
 11
0.870043
 21
0.279275
 31
0.0
 12
0.885526
 22
0.285471
 32
0.0
 13
0.860753
 23
0.269981
 33
0.0
  0
SOLID
  5
9E
  8
0
 62
     7
 10
0.7725
 20
0.18324
 30
0.0
 11
0.789532
 21
0.190985
 31
0.0
 12
0.7725
 22
0.18324
 32
0.0
 13
0.798821
 23
0.197181
 33
0.0
  0
SOLID
  5
9F
  8
0
 62
     7
 10
0.805015
 20
0.133674
 30
0.0
 11
0.80037
 21
0.149164
 31
0.0
 12
0.805015
 22
0.133674
 32
0.0
 13
0.787983
 23
0.158457
 33
0.0
  0
SOLID
  5
A0
  8
0
 62
     7
 10
0.88243
 20
0.048482
 30
0.0
 11
0.874688
 21
0.06552
 31
0.0
 12
0.88243
 22
0.048482
 32
0.0
 13
0.866947
 23
0.074814
 33
0.0
  0
SOLID
  5
A1
  8
0
 62
     7
 10
0.668764
 20
0.155359
 30
0.0
 11
0.653281
 21
0.152261
 31
0.0
 12
0.668764
 22
0.155359
 32
0.0
 13
0.653281
 23
0.125929
 33
0.0
  0
SOLID
  5
A2
  8
0
 62
     7
 10
0.668764
 20
0.155359
 30
0.0
 11
0.653281
 21
0.125929
 31
0.0
 12
0.668764
 22
0.155359
 32
0.0
 13
0.684247
 23
0.132125
 33
0.0
  0
SOLID
  5
A3
  8
0
 62
     7
 10
0.856108
 20
0.031444
 30
0.0
 11
0.876236
 21
0.011307
 31
0.0
 12
0.856108
 22
0.031444
 32
0.0
 13
0.891719
 23
0.028346
 33
0.0
  0
SOLID
  5
A4
  8
0
 62
     7
 10
0.856108
 20
0.031444
 30
0.0
 11
0.891719
 21
0.028346
 31
0.0
 12
0.856108
 22
0.031444
 32
0.0
 13
0.88243
 23
0.048482
 33
0.0
  0
SOLID
  5
A5
  8
0
 62
     7
 10
0.846819
 20
0.040737
 30
0.0
 11
0.856108
 21
0.031444
 31
0.0
 12
0.846819
 22
0.040737
 32
0.0
 13
0.88243
 23
0.048482
 33
0.0
  0
SOLID
  5
A6
  8
0
 62
     7
 10
0.766307
 20
0.347429
 30
0.0
 11
0.787983
 21
0.369114
 31
0.0
 12
0.766307
 22
0.347429
 32
0.0
 13
0.784887
 23
0.379957
 33
0.0
  0
SOLID
  5
A7
  8
0
 62
     7
 10
0.879333
 20
0.237454
 30
0.0
 11
0.887074
 21
0.245198
 31
0.0
 12
0.879333
 22
0.237454
 32
0.0
 13
0.899461
 23
0.269981
 33
0.0
  0
SOLID
  5
A8
  8
0
 62
     7
 10
0.899461
 20
0.269981
 30
0.0
 11
0.885526
 21
0.285471
 31
0.0
 12
0.899461
 22
0.269981
 32
0.0
 13
0.860753
 23
0.269981
 33
0.0
  0
SOLID
  5
A9
  8
0
 62
     7
 10
0.879333
 20
0.237454
 30
0.0
 11
0.899461
 21
0.269981
 31
0.0
 12
0.879333
 22
0.237454
 32
0.0
 13
0.860753
 23
0.269981
 33
0.0
  0
SOLID
  5
AA
  8
0
 62
     7
 10
0.879333
 20
0.237454
 30
0.0
 11
0.860753
 21
0.269981
 31
0.0
 12
0.879333
 22
0.237454
 32
0.0
 13
0.848367
 23
0.249845
 33
0.0
  0
SOLID
  5
AB
  8
0
 62
     7
 10
0.866947
 20
0.221964
 30
0.0
 11
0.879333
 21
0.237454
 31
0.0
 12
0.866947
 22
0.221964
 32
0.0
 13
0.848367
 23
0.249845
 33
0.0
  0
SOLID
  5
AC
  8
0
 62
     7
 10
0.837529
 20
0.214219
 30
0.0
 11
0.866947
 21
0.221964
 31
0.0
 12
0.837529
 22
0.214219
 32
0.0
 13
0.848367
 23
0.249845
 33
0.0
  0
SOLID
  5
AD
  8
0
 62
     7
 10
0.837529
 20
0.214219
 30
0.0
 11
0.848367
 21
0.249845
 31
0.0
 12
0.837529
 22
0.214219
 32
0.0
 13
0.828239
 23
0.237454
 33
0.0
  0
SOLID
  5
AE
  8
0
 62
     7
 10
0.825143
 20
0.206475
 30
0.0
 11
0.837529
 21
0.214219
 31
0.0
 12
0.825143
 22
0.206475
 32
0.0
 13
0.828239
 23
0.237454
 33
0.0
  0
SOLID
  5
AF
  8
0
 62
     7
 10
0.825143
 20
0.206475
 30
0.0
 11
0.828239
 21
0.237454
 31
0.0
 12
0.825143
 22
0.206475
 32
0.0
 13
0.812756
 23
0.234356
 33
0.0
  0
SOLID
  5
B0
  8
0
 62
     7
 10
0.695086
 20
0.1693
 30
0.0
 11
0.668764
 21
0.155359
 31
0.0
 12
0.695086
 22
0.1693
 32
0.0
 13
0.684247
 23
0.132125
 33
0.0
  0
SOLID
  5
B1
  8
0
 62
     7
 10
0.695086
 20
0.1693
 30
0.0
 11
0.684247
 21
0.132125
 31
0.0
 12
0.695086
 22
0.1693
 32
0.0
 13
0.707472
 23
0.152261
 33
0.0
  0
SOLID
  5
B2
  8
0
 62
     7
 10
0.701279
 20
0.18324
 30
0.0
 11
0.695086
 21
0.1693
 31
0.0
 12
0.701279
 22
0.18324
 32
0.0
 13
0.707472
 23
0.152261
 33
0.0
  0
SOLID
  5
B3
  8
0
 62
     7
 10
0.701279
 20
0.18324
 30
0.0
 11
0.707472
 21
0.152261
 31
0.0
 12
0.701279
 22
0.18324
 32
0.0
 13
0.7276
 23
0.155359
 33
0.0
  0
SOLID
  5
B4
  8
0
 62
     7
 10
0.846819
 20
0.040737
 30
0.0
 11
0.88243
 21
0.048482
 31
0.0
 12
0.846819
 22
0.040737
 32
0.0
 13
0.866947
 23
0.074814
 33
0.0
  0
SOLID
  5
B5
  8
0
 62
     7
 10
0.798821
 20
0.197181
 30
0.0
 11
0.825143
 21
0.206475
 31
0.0
 12
0.798821
 22
0.197181
 32
0.0
 13
0.812756
 23
0.234356
 33
0.0
  0
SOLID
  5
B6
  8
0
 62
     7
 10
0.812756
 20
0.093401
 30
0.0
 11
0.811208
 21
0.118185
 31
0.0
 12
0.812756
 22
0.093401
 32
0.0
 13
0.805015
 23
0.133674
 33
0.0
  0
SOLID
  5
B7
  8
0
 62
     7
 10
0.8
 20
0.0
 30
0.0
 11
0.803466
 21
0.019052
 31
0.0
 12
0.8
 22
0.0
 32
0.0
 13
0.805015
 23
0.040737
 33
0.0
  0
SOLID
  5
B8
  8
0
 62
     7
 10
0.832884
 20
0.050031
 30
0.0
 11
0.846819
 21
0.040737
 31
0.0
 12
0.832884
 22
0.050031
 32
0.0
 13
0.866947
 23
0.074814
 33
0.0
  0
SOLID
  5
B9
  8
0
 62
     7
 10
0.832884
 20
0.050031
 30
0.0
 11
0.866947
 21
0.074814
 31
0.0
 12
0.832884
 22
0.050031
 32
0.0
 13
0.839077
 23
0.084108
 33
0.0
  0
SOLID
  5
BA
  8
0
 62
     7
 10
0.811208
 20
0.059325
 30
0.0
 11
0.832884
 21
0.050031
 31
0.0
 12
0.811208
 22
0.059325
 32
0.0
 13
0.839077
 23
0.084108
 33
0.0
  0
SOLID
  5
BB
  8
0
 62
     7
 10
0.811208
 20
0.059325
 30
0.0
 11
0.839077
 21
0.084108
 31
0.0
 12
0.811208
 22
0.059325
 32
0.0
 13
0.812756
 23
0.093401
 33
0.0
  0
SOLID
  5
BC
  8
0
 62
     7
 10
0.798821
 20
0.197181
 30
0.0
 11
0.812756
 21
0.234356
 31
0.0
 12
0.798821
 22
0.197181
 32
0.0
 13
0.777145
 23
0.234356
 33
0.0
  0
SOLID
  5
BD
  8
0
 62
     7
 10
0.798821
 20
0.197181
 30
0.0
 11
0.777145
 21
0.234356
 31
0.0
 12
0.798821
 22
0.197181
 32
0.0
 13
0.764759
 23
0.214219
 33
0.0
  0
SOLID
  5
BE
  8
0
 62
     7
 10
0.7725
 20
0.18324
 30
0.0
 11
0.798821
 21
0.197181
 31
0.0
 12
0.7725
 22
0.18324
 32
0.0
 13
0.764759
 23
0.214219
 33
0.0
  0
SOLID
  5
BF
  8
0
 62
     7
 10
0.7725
 20
0.18324
 30
0.0
 11
0.764759
 21
0.214219
 31
0.0
 12
0.7725
 22
0.18324
 32
0.0
 13
0.741534
 23
0.206475
 33
0.0
  0
SOLID
  5
C0
  8
0
 62
     7
 10
0.764759
 20
0.172398
 30
0.0
 11
0.7725
 21
0.18324
 31
0.0
 12
0.764759
 22
0.172398
 32
0.0
 13
0.741534
 23
0.206475
 33
0.0
  0
SOLID
  5
C1
  8
0
 62
     7
 10
0.724503
 20
0.215768
 30
0.0
 11
0.710568
 21
0.237454
 31
0.0
 12
0.724503
 22
0.215768
 32
0.0
 13
0.698182
 23
0.249845
 33
0.0
  0
SOLID
  5
C2
  8
0
 62
     7
 10
0.784887
 20
0.379957
 30
0.0
 11
0.758566
 21
0.393897
 31
0.0
 12
0.784887
 22
0.379957
 32
0.0
 13
0.739986
 23
0.367565
 33
0.0
  0
SOLID
  5
C3
  8
0
 62
     7
 10
0.766307
 20
0.347429
 30
0.0
 11
0.784887
 21
0.379957
 31
0.0
 12
0.766307
 22
0.347429
 32
0.0
 13
0.739986
 23
0.367565
 33
0.0
  0
SOLID
  5
C4
  8
0
 62
     7
 10
0.741534
 20
0.33039
 30
0.0
 11
0.766307
 21
0.347429
 31
0.0
 12
0.741534
 22
0.33039
 32
0.0
 13
0.739986
 23
0.367565
 33
0.0
  0
SOLID
  5
C5
  8
0
 62
     7
 10
0.741534
 20
0.33039
 30
0.0
 11
0.739986
 21
0.367565
 31
0.0
 12
0.741534
 22
0.33039
 32
0.0
 13
0.712117
 23
0.339684
 33
0.0
  0
SOLID
  5
C6
  8
0
 62
     7
 10
0.726051
 20
0.310254
 30
0.0
 11
0.741534
 21
0.33039
 31
0.0
 12
0.726051
 22
0.310254
 32
0.0
 13
0.712117
 23
0.339684
 33
0.0
  0
SOLID
  5
C7
  8
0
 62
     7
 10
0.726051
 20
0.310254
 30
0.0
 11
0.712117
 21
0.339684
 31
0.0
 12
0.726051
 22
0.310254
 32
0.0
 13
0.679603
 23
0.314901
 33
0.0
  0
SOLID
  5
C8
  8
0
 62
     7
 10
0.691989
 20
0.294765
 30
0.0
 11
0.726051
 21
0.310254
 31
0.0
 12
0.691989
 22
0.294765
 32
0.0
 13
0.679603
 23
0.314901
 33
0.0
  0
SOLID
  5
C9
  8
0
 62
     7
 10
0.691989
 20
0.294765
 30
0.0
 11
0.679603
 21
0.314901
 31
0.0
 12
0.691989
 22
0.294765
 32
0.0
 13
0.667216
 23
0.291667
 33
0.0
  0
SOLID
  5
CA
  8
0
 62
     7
 10
0.695086
 20
0.27153
 30
0.0
 11
0.691989
 21
0.294765
 31
0.0
 12
0.695086
 22
0.27153
 32
0.0
 13
0.667216
 23
0.291667
 33
0.0
  0
SOLID
  5
CB
  8
0
 62
     7
 10
0.695086
 20
0.27153
 30
0.0
 11
0.667216
 21
0.291667
 31
0.0
 12
0.695086
 22
0.27153
 32
0.0
 13
0.662571
 23
0.251394
 33
0.0
  0
SOLID
  5
CC
  8
0
 62
     7
 10
0.698182
 20
0.249845
 30
0.0
 11
0.695086
 21
0.27153
 31
0.0
 12
0.698182
 22
0.249845
 32
0.0
 13
0.662571
 23
0.251394
 33
0.0
  0
SOLID
  5
CD
  8
0
 62
     7
 10
0.698182
 20
0.249845
 30
0.0
 11
0.662571
 21
0.251394
 31
0.0
 12
0.698182
 22
0.249845
 32
0.0
 13
0.673409
 23
0.226611
 33
0.0
  0
SOLID
  5
CE
  8
0
 62
     7
 10
0.774049
 20
0.042286
 30
0.0
 11
0.76
 21
0.0
 31
0.0
 12
0.774049
 22
0.042286
 32
0.0
 13
0.8
 23
0.0
 33
0.0
  0
SOLID
  5
CF
  8
0
 62
     7
 10
0.774049
 20
0.042286
 30
0.0
 11
0.8
 21
0.0
 31
0.0
 12
0.774049
 22
0.042286
 32
0.0
 13
0.805015
 23
0.040737
 33
0.0
  0
SOLID
  5
D0
  8
0
 62
     7
 10
0.774049
 20
0.042286
 30
0.0
 11
0.805015
 21
0.040737
 31
0.0
 12
0.774049
 22
0.042286
 32
0.0
 13
0.811208
 23
0.059325
 33
0.0
  0
SOLID
  5
D1
  8
0
 62
     7
 10
0.778694
 20
0.077912
 30
0.0
 11
0.774049
 21
0.042286
 31
0.0
 12
0.778694
 22
0.077912
 32
0.0
 13
0.811208
 23
0.059325
 33
0.0
  0
SOLID
  5
D2
  8
0
 62
     7
 10
0.778694
 20
0.077912
 30
0.0
 11
0.811208
 21
0.059325
 31
0.0
 12
0.778694
 22
0.077912
 32
0.0
 13
0.812756
 23
0.093401
 33
0.0
  0
SOLID
  5
D3
  8
0
 62
     7
 10
0.775597
 20
0.11044
 30
0.0
 11
0.778694
 21
0.077912
 31
0.0
 12
0.775597
 22
0.11044
 32
0.0
 13
0.812756
 23
0.093401
 33
0.0
  0
SOLID
  5
D4
  8
0
 62
     7
 10
0.775597
 20
0.11044
 30
0.0
 11
0.812756
 21
0.093401
 31
0.0
 12
0.775597
 22
0.11044
 32
0.0
 13
0.805015
 23
0.133674
 33
0.0
  0
SOLID
  5
D5
  8
0
 62
     7
 10
0.775597
 20
0.11044
 30
0.0
 11
0.805015
 21
0.133674
 31
0.0
 12
0.775597
 22
0.11044
 32
0.0
 13
0.787983
 23
0.158457
 33
0.0
  0
SOLID
  5
D6
  8
0
 62
     7
 10
0.750824
 20
0.142968
 30
0.0
 11
0.775597
 21
0.11044
 31
0.0
 12
0.750824
 22
0.142968
 32
0.0
 13
0.787983
 23
0.158457
 33
0.0
  0
SOLID
  5
D7
  8
0
 62
     7
 10
0.750824
 20
0.142968
 30
0.0
 11
0.787983
 21
0.158457
 31
0.0
 12
0.750824
 22
0.142968
 32
0.0
 13
0.764759
 23
0.172398
 33
0.0
  0
SOLID
  5
D8
  8
0
 62
     7
 10
0.7276
 20
0.155359
 30
0.0
 11
0.750824
 21
0.142968
 31
0.0
 12
0.7276
 22
0.155359
 32
0.0
 13
0.764759
 23
0.172398
 33
0.0
  0
SOLID
  5
D9
  8
0
 62
     7
 10
0.724503
 20
0.215768
 30
0.0
 11
0.698182
 21
0.249845
 31
0.0
 12
0.724503
 22
0.215768
 32
0.0
 13
0.673409
 23
0.226611
 33
0.0
  0
SOLID
  5
DA
  8
0
 62
     7
 10
0.724503
 20
0.215768
 30
0.0
 11
0.673409
 21
0.226611
 31
0.0
 12
0.724503
 22
0.215768
 32
0.0
 13
0.701279
 23
0.18324
 33
0.0
  0
SOLID
  5
DB
  8
0
 62
     7
 10
0.741534
 20
0.206475
 30
0.0
 11
0.724503
 21
0.215768
 31
0.0
 12
0.741534
 22
0.206475
 32
0.0
 13
0.701279
 23
0.18324
 33
0.0
  0
SOLID
  5
DC
  8
0
 62
     7
 10
0.7276
 20
0.155359
 30
0.0
 11
0.764759
 21
0.172398
 31
0.0
 12
0.7276
 22
0.155359
 32
0.0
 13
0.741534
 23
0.206475
 33
0.0
  0
SOLID
  5
DD
  8
0
 62
     7
 10
0.7276
 20
0.155359
 30
0.0
 11
0.741534
 21
0.206475
 31
0.0
 12
0.7276
 22
0.155359
 32
0.0
 13
0.701279
 23
0.18324
 33
0.0
  0
SOLID
  5
DE
  8
0
 62
     7
 10
0.958546
 20
0.302401
 30
0.0
 11
0.958546
 21
0.31015
 31
0.0
 12
0.958546
 22
0.302401
 32
0.0
 13
0.946153
 23
0.322549
 33
0.0
  0
SOLID
  5
DF
  8
0
 62
     7
 10
0.975587
 20
0.150522
 30
0.0
 11
0.964743
 21
0.152072
 31
0.0
 12
0.975587
 22
0.150522
 32
0.0
 13
0.95235
 23
0.142773
 33
0.0
  0
SOLID
  5
E0
  8
0
 62
     7
 10
0.854754
 20
0.110227
 30
0.0
 11
0.857852
 21
0.108677
 31
0.0
 12
0.854754
 22
0.110227
 32
0.0
 13
0.877991
 23
0.102478
 33
0.0
  0
SOLID
  5
E1
  8
0
 62
     7
 10
0.984882
 20
0.127275
 30
0.0
 11
0.984882
 21
0.136574
 31
0.0
 12
0.984882
 22
0.127275
 32
0.0
 13
0.975587
 23
0.150522
 33
0.0
  0
SOLID
  5
E2
  8
0
 62
     7
 10
0.89813
 20
0.328748
 30
0.0
 11
0.895032
 21
0.3117
 31
0.0
 12
0.89813
 22
0.328748
 32
0.0
 13
0.902777
 23
0.303951
 33
0.0
  0
SOLID
  5
E3
  8
0
 62
     7
 10
0.929113
 20
0.228011
 30
0.0
 11
0.919818
 21
0.220262
 31
0.0
 12
0.929113
 22
0.228011
 32
0.0
 13
0.908974
 23
0.210964
 33
0.0
  0
SOLID
  5
E4
  8
0
 62
     7
 10
0.984882
 20
0.356644
 30
0.0
 11
0.983333
 21
0.375242
 31
0.0
 12
0.984882
 22
0.356644
 32
0.0
 13
0.964743
 23
0.376791
 33
0.0
  0
SOLID
  5
E5
  8
0
 62
     7
 10
0.964743
 20
0.376791
 30
0.0
 11
0.950801
 21
0.370592
 31
0.0
 12
0.964743
 22
0.376791
 32
0.0
 13
0.941506
 23
0.359744
 33
0.0
  0
SOLID
  5
E6
  8
0
 62
     7
 10
0.96939
 20
0.23886
 30
0.0
 11
0.97094
 21
0.248159
 31
0.0
 12
0.96939
 22
0.23886
 32
0.0
 13
0.967841
 23
0.268306
 33
0.0
  0
SOLID
  5
E7
  8
0
 62
     7
 10
0.947702
 20
0.026538
 30
0.0
 11
0.964743
 21
0.024989
 31
0.0
 12
0.947702
 22
0.026538
 32
0.0
 13
0.974038
 23
0.040486
 33
0.0
  0
SOLID
  5
E8
  8
0
 62
     7
 10
0.86095
 20
0.183067
 30
0.0
 11
0.842361
 21
0.176868
 31
0.0
 12
0.86095
 22
0.183067
 32
0.0
 13
0.836164
 23
0.16602
 33
0.0
  0
SOLID
  5
E9
  8
0
 62
     7
 10
0.91672
 20
0.040486
 30
0.0
 11
0.93376
 21
0.031188
 31
0.0
 12
0.91672
 22
0.040486
 32
0.0
 13
0.947702
 23
0.026538
 33
0.0
  0
SOLID
  5
EA
  8
0
 62
     7
 10
0.927564
 20
0.347345
 30
0.0
 11
0.910523
 21
0.338047
 31
0.0
 12
0.927564
 22
0.347345
 32
0.0
 13
0.89813
 23
0.328748
 33
0.0
  0
SOLID
  5
EB
  8
0
 62
     7
 10
0.958546
 20
0.290003
 30
0.0
 11
0.958546
 21
0.302401
 31
0.0
 12
0.958546
 22
0.290003
 32
0.0
 13
0.946153
 23
0.322549
 33
0.0
  0
SOLID
  5
EC
  8
0
 62
     7
 10
0.95235
 20
0.207864
 30
0.0
 11
0.960096
 21
0.217163
 31
0.0
 12
0.95235
 22
0.207864
 32
0.0
 13
0.96939
 23
0.23886
 33
0.0
  0
SOLID
  5
ED
  8
0
 62
     7
 10
0.918269
 20
0.113327
 30
0.0
 11
0.902777
 21
0.127275
 31
0.0
 12
0.918269
 22
0.113327
 32
0.0
 13
0.888835
 23
0.133474
 33
0.0
  0
SOLID
  5
EE
  8
0
 62
     7
 10
0.984882
 20
0.127275
 30
0.0
 11
0.975587
 21
0.150522
 31
0.0
 12
0.984882
 22
0.127275
 32
0.0
 13
0.95235
 23
0.142773
 33
0.0
  0
SOLID
  5
EF
  8
0
 62
     7
 10
0.984882
 20
0.127275
 30
0.0
 11
0.95235
 21
0.142773
 31
0.0
 12
0.984882
 22
0.127275
 32
0.0
 13
0.950801
 23
0.116426
 33
0.0
  0
SOLID
  5
F0
  8
0
 62
     7
 10
0.981784
 20
0.105578
 30
0.0
 11
0.984882
 21
0.127275
 31
0.0
 12
0.981784
 22
0.105578
 32
0.0
 13
0.950801
 23
0.116426
 33
0.0
  0
SOLID
  5
F1
  8
0
 62
     7
 10
0.981784
 20
0.105578
 30
0.0
 11
0.950801
 21
0.116426
 31
0.0
 12
0.981784
 22
0.105578
 32
0.0
 13
0.953899
 23
0.100928
 33
0.0
  0
SOLID
  5
F2
  8
0
 62
     7
 10
0.980234
 20
0.09163
 30
0.0
 11
0.981784
 21
0.105578
 31
0.0
 12
0.980234
 22
0.09163
 32
0.0
 13
0.953899
 23
0.100928
 33
0.0
  0
SOLID
  5
F3
  8
0
 62
     7
 10
0.980234
 20
0.09163
 30
0.0
 11
0.953899
 21
0.100928
 31
0.0
 12
0.980234
 22
0.09163
 32
0.0
 13
0.947702
 23
0.077681
 33
0.0
  0
SOLID
  5
F4
  8
0
 62
     7
 10
0.974038
 20
0.063733
 30
0.0
 11
0.980234
 21
0.09163
 31
0.0
 12
0.974038
 22
0.063733
 32
0.0
 13
0.947702
 23
0.077681
 33
0.0
  0
SOLID
  5
F5
  8
0
 62
     7
 10
0.974038
 20
0.063733
 30
0.0
 11
0.947702
 21
0.077681
 31
0.0
 12
0.974038
 22
0.063733
 32
0.0
 13
0.944604
 23
0.073032
 33
0.0
  0
SOLID
  5
F6
  8
0
 62
     7
 10
0.899679
 20
0.153621
 30
0.0
 11
0.919818
 21
0.16292
 31
0.0
 12
0.899679
 22
0.153621
 32
0.0
 13
0.930662
 23
0.172219
 33
0.0
  0
SOLID
  5
F7
  8
0
 62
     7
 10
0.980234
 20
0.342696
 30
0.0
 11
0.984882
 21
0.356644
 31
0.0
 12
0.980234
 22
0.342696
 32
0.0
 13
0.964743
 23
0.376791
 33
0.0
  0
SOLID
  5
F8
  8
0
 62
     7
 10
0.89813
 20
0.073032
 30
0.0
 11
0.905876
 21
0.055984
 31
0.0
 12
0.89813
 22
0.073032
 32
0.0
 13
0.91672
 23
0.040486
 33
0.0
  0
SOLID
  5
F9
  8
0
 62
     7
 10
0.834615
 20
0.144323
 30
0.0
 11
0.834615
 21
0.124175
 31
0.0
 12
0.834615
 22
0.144323
 32
0.0
 13
0.854754
 23
0.110227
 33
0.0
  0
SOLID
  5
FA
  8
0
 62
     7
 10
0.930662
 20
0.172219
 30
0.0
 11
0.943055
 21
0.192366
 31
0.0
 12
0.930662
 22
0.172219
 32
0.0
 13
0.95235
 23
0.207864
 33
0.0
  0
SOLID
  5
FB
  8
0
 62
     7
 10
0.980234
 20
0.342696
 30
0.0
 11
0.964743
 21
0.376791
 31
0.0
 12
0.980234
 22
0.342696
 32
0.0
 13
0.941506
 23
0.359744
 33
0.0
  0
SOLID
  5
FC
  8
0
 62
     7
 10
0.946153
 20
0.322549
 30
0.0
 11
0.980234
 21
0.342696
 31
0.0
 12
0.946153
 22
0.322549
 32
0.0
 13
0.941506
 23
0.359744
 33
0.0
  0
SOLID
  5
FD
  8
0
 62
     7
 10
0.946153
 20
0.322549
 30
0.0
 11
0.941506
 21
0.359744
 31
0.0
 12
0.946153
 22
0.322549
 32
0.0
 13
0.927564
 23
0.347345
 33
0.0
  0
SOLID
  5
FE
  8
0
 62
     7
 10
0.974038
 20
0.040486
 30
0.0
 11
0.974038
 21
0.063733
 31
0.0
 12
0.974038
 22
0.040486
 32
0.0
 13
0.944604
 23
0.073032
 33
0.0
  0
SOLID
  5
FF
  8
0
 62
     7
 10
0.89813
 20
0.328748
 30
0.0
 11
0.902777
 21
0.303951
 31
0.0
 12
0.89813
 22
0.328748
 32
0.0
 13
0.919818
 23
0.290003
 33
0.0
  0
SOLID
  5
100
  8
0
 62
     7
 10
0.876442
 20
0.186167
 30
0.0
 11
0.86095
 21
0.183067
 31
0.0
 12
0.876442
 22
0.186167
 32
0.0
 13
0.836164
 23
0.16602
 33
0.0
  0
SOLID
  5
101
  8
0
 62
     7
 10
0.929113
 20
0.228011
 30
0.0
 11
0.908974
 21
0.210964
 31
0.0
 12
0.929113
 22
0.228011
 32
0.0
 13
0.896581
 23
0.195466
 33
0.0
  0
SOLID
  5
102
  8
0
 62
     7
 10
0.947702
 20
0.026538
 30
0.0
 11
0.974038
 21
0.040486
 31
0.0
 12
0.947702
 22
0.026538
 32
0.0
 13
0.944604
 23
0.073032
 33
0.0
  0
SOLID
  5
103
  8
0
 62
     7
 10
0.91672
 20
0.040486
 30
0.0
 11
0.947702
 21
0.026538
 31
0.0
 12
0.91672
 22
0.040486
 32
0.0
 13
0.944604
 23
0.073032
 33
0.0
  0
SOLID
  5
104
  8
0
 62
     7
 10
0.89813
 20
0.073032
 30
0.0
 11
0.91672
 21
0.040486
 31
0.0
 12
0.89813
 22
0.073032
 32
0.0
 13
0.944604
 23
0.073032
 33
0.0
  0
SOLID
  5
105
  8
0
 62
     7
 10
0.89813
 20
0.073032
 30
0.0
 11
0.944604
 21
0.073032
 31
0.0
 12
0.89813
 22
0.073032
 32
0.0
 13
0.927564
 23
0.097829
 33
0.0
  0
SOLID
  5
106
  8
0
 62
     7
 10
0.885737
 20
0.094729
 30
0.0
 11
0.89813
 21
0.073032
 31
0.0
 12
0.885737
 22
0.094729
 32
0.0
 13
0.927564
 23
0.097829
 33
0.0
  0
SOLID
  5
107
  8
0
 62
     7
 10
0.885737
 20
0.094729
 30
0.0
 11
0.927564
 21
0.097829
 31
0.0
 12
0.885737
 22
0.094729
 32
0.0
 13
0.918269
 23
0.113327
 33
0.0
  0
SOLID
  5
108
  8
0
 62
     7
 10
0.885737
 20
0.094729
 30
0.0
 11
0.918269
 21
0.113327
 31
0.0
 12
0.885737
 22
0.094729
 32
0.0
 13
0.888835
 23
0.133474
 33
0.0
  0
SOLID
  5
109
  8
0
 62
     7
 10
0.877991
 20
0.102478
 30
0.0
 11
0.885737
 21
0.094729
 31
0.0
 12
0.877991
 22
0.102478
 32
0.0
 13
0.888835
 23
0.133474
 33
0.0
  0
SOLID
  5
10A
  8
0
 62
     7
 10
0.854754
 20
0.110227
 30
0.0
 11
0.877991
 21
0.102478
 31
0.0
 12
0.854754
 22
0.110227
 32
0.0
 13
0.888835
 23
0.133474
 33
0.0
  0
SOLID
  5
10B
  8
0
 62
     7
 10
0.854754
 20
0.110227
 30
0.0
 11
0.888835
 21
0.133474
 31
0.0
 12
0.854754
 22
0.110227
 32
0.0
 13
0.888835
 23
0.144323
 33
0.0
  0
SOLID
  5
10C
  8
0
 62
     7
 10
0.946153
 20
0.322549
 30
0.0
 11
0.927564
 21
0.347345
 31
0.0
 12
0.946153
 22
0.322549
 32
0.0
 13
0.89813
 23
0.328748
 33
0.0
  0
SOLID
  5
10D
  8
0
 62
     7
 10
0.946153
 20
0.322549
 30
0.0
 11
0.89813
 21
0.328748
 31
0.0
 12
0.946153
 22
0.322549
 32
0.0
 13
0.919818
 23
0.290003
 33
0.0
  0
SOLID
  5
10E
  8
0
 62
     7
 10
0.958546
 20
0.290003
 30
0.0
 11
0.946153
 21
0.322549
 31
0.0
 12
0.958546
 22
0.290003
 32
0.0
 13
0.919818
 23
0.290003
 33
0.0
  0
SOLID
  5
10F
  8
0
 62
     7
 10
0.958546
 20
0.290003
 30
0.0
 11
0.919818
 21
0.290003
 31
0.0
 12
0.958546
 22
0.290003
 32
0.0
 13
0.924465
 23
0.279155
 33
0.0
  0
SOLID
  5
110
  8
0
 62
     7
 10
0.958546
 20
0.290003
 30
0.0
 11
0.924465
 21
0.279155
 31
0.0
 12
0.958546
 22
0.290003
 32
0.0
 13
0.929113
 23
0.263657
 33
0.0
  0
SOLID
  5
111
  8
0
 62
     7
 10
0.967841
 20
0.268306
 30
0.0
 11
0.958546
 21
0.290003
 31
0.0
 12
0.967841
 22
0.268306
 32
0.0
 13
0.929113
 23
0.263657
 33
0.0
  0
SOLID
  5
112
  8
0
 62
     7
 10
0.967841
 20
0.268306
 30
0.0
 11
0.929113
 21
0.263657
 31
0.0
 12
0.967841
 22
0.268306
 32
0.0
 13
0.929113
 23
0.243509
 33
0.0
  0
SOLID
  5
113
  8
0
 62
     7
 10
0.96939
 20
0.23886
 30
0.0
 11
0.967841
 21
0.268306
 31
0.0
 12
0.96939
 22
0.23886
 32
0.0
 13
0.929113
 23
0.243509
 33
0.0
  0
SOLID
  5
114
  8
0
 62
     7
 10
0.96939
 20
0.23886
 30
0.0
 11
0.929113
 21
0.243509
 31
0.0
 12
0.96939
 22
0.23886
 32
0.0
 13
0.929113
 23
0.228011
 33
0.0
  0
SOLID
  5
115
  8
0
 62
     7
 10
0.95235
 20
0.207864
 30
0.0
 11
0.96939
 21
0.23886
 31
0.0
 12
0.95235
 22
0.207864
 32
0.0
 13
0.929113
 23
0.228011
 33
0.0
  0
SOLID
  5
116
  8
0
 62
     7
 10
0.834615
 20
0.144323
 30
0.0
 11
0.854754
 21
0.110227
 31
0.0
 12
0.834615
 22
0.144323
 32
0.0
 13
0.888835
 23
0.144323
 33
0.0
  0
SOLID
  5
117
  8
0
 62
     7
 10
0.930662
 20
0.172219
 30
0.0
 11
0.95235
 21
0.207864
 31
0.0
 12
0.930662
 22
0.172219
 32
0.0
 13
0.929113
 23
0.228011
 33
0.0
  0
SOLID
  5
118
  8
0
 62
     7
 10
0.930662
 20
0.172219
 30
0.0
 11
0.929113
 21
0.228011
 31
0.0
 12
0.930662
 22
0.172219
 32
0.0
 13
0.896581
 23
0.195466
 33
0.0
  0
SOLID
  5
119
  8
0
 62
     7
 10
0.899679
 20
0.153621
 30
0.0
 11
0.930662
 21
0.172219
 31
0.0
 12
0.899679
 22
0.153621
 32
0.0
 13
0.896581
 23
0.195466
 33
0.0
  0
SOLID
  5
11A
  8
0
 62
     7
 10
0.899679
 20
0.153621
 30
0.0
 11
0.896581
 21
0.195466
 31
0.0
 12
0.899679
 22
0.153621
 32
0.0
 13
0.876442
 23
0.186167
 33
0.0
  0
SOLID
  5
11B
  8
0
 62
     7
 10
0.888835
 20
0.144323
 30
0.0
 11
0.899679
 21
0.153621
 31
0.0
 12
0.888835
 22
0.144323
 32
0.0
 13
0.876442
 23
0.186167
 33
0.0
  0
SOLID
  5
11C
  8
0
 62
     7
 10
0.888835
 20
0.144323
 30
0.0
 11
0.876442
 21
0.186167
 31
0.0
 12
0.888835
 22
0.144323
 32
0.0
 13
0.836164
 23
0.16602
 33
0.0
  0
SOLID
  5
11D
  8
0
 62
     7
 10
0.834615
 20
0.144323
 30
0.0
 11
0.888835
 21
0.144323
 31
0.0
 12
0.834615
 22
0.144323
 32
0.0
 13
0.836164
 23
0.16602
 33
0.0
  0
SOLID
  5
11E
  8
0
 62
     7
 10
0.812756
 20
0.475991
 30
0.0
 11
0.812756
 21
0.460502
 31
0.0
 12
0.812756
 22
0.475991
 32
0.0
 13
0.826691
 23
0.458953
 33
0.0
  0
SOLID
  5
11F
  8
0
 62
     7
 10
0.92733
 20
0.395446
 30
0.0
 11
0.942813
 21
0.398544
 31
0.0
 12
0.92733
 22
0.395446
 32
0.0
 13
0.950555
 23
0.401642
 33
0.0
  0
SOLID
  5
120
  8
0
 62
     7
 10
0.826691
 20
0.483736
 30
0.0
 11
0.812756
 21
0.475991
 31
0.0
 12
0.826691
 22
0.483736
 32
0.0
 13
0.826691
 23
0.458953
 33
0.0
  0
SOLID
  5
121
  8
0
 62
     7
 10
0.874688
 20
0.347429
 30
0.0
 11
0.887074
 21
0.353625
 31
0.0
 12
0.874688
 22
0.347429
 32
0.0
 13
0.896364
 23
0.35982
 33
0.0
  0
SOLID
  5
122
  8
0
 62
     7
 10
0.880881
 20
0.407838
 30
0.0
 11
0.87314
 21
0.398544
 31
0.0
 12
0.880881
 22
0.407838
 32
0.0
 13
0.87314
 23
0.383055
 33
0.0
  0
SOLID
  5
123
  8
0
 62
     7
 10
0.767856
 20
0.296314
 30
0.0
 11
0.761662
 21
0.280824
 31
0.0
 12
0.767856
 22
0.296314
 32
0.0
 13
0.778694
 23
0.269981
 33
0.0
  0
SOLID
  5
124
  8
0
 62
     7
 10
0.828239
 20
0.290118
 30
0.0
 11
0.843722
 21
0.299411
 31
0.0
 12
0.828239
 22
0.290118
 32
0.0
 13
0.853012
 23
0.311803
 33
0.0
  0
SOLID
  5
125
  8
0
 62
     7
 10
0.853012
 20
0.479089
 30
0.0
 11
0.826691
 21
0.483736
 31
0.0
 12
0.853012
 22
0.479089
 32
0.0
 13
0.826691
 23
0.458953
 33
0.0
  0
SOLID
  5
126
  8
0
 62
     7
 10
0.853012
 20
0.479089
 30
0.0
 11
0.826691
 21
0.458953
 31
0.0
 12
0.853012
 22
0.479089
 32
0.0
 13
0.846819
 23
0.44811
 33
0.0
  0
SOLID
  5
127
  8
0
 62
     7
 10
0.950555
 20
0.401642
 30
0.0
 11
0.969134
 21
0.410936
 31
0.0
 12
0.950555
 22
0.401642
 32
0.0
 13
0.978424
 23
0.423327
 33
0.0
  0
SOLID
  5
128
  8
0
 62
     7
 10
0.778694
 20
0.269981
 30
0.0
 11
0.797273
 21
0.274628
 31
0.0
 12
0.778694
 22
0.269981
 32
0.0
 13
0.80966
 23
0.28702
 33
0.0
  0
SOLID
  5
129
  8
0
 62
     7
 10
0.853012
 20
0.479089
 30
0.0
 11
0.846819
 21
0.44811
 31
0.0
 12
0.853012
 22
0.479089
 32
0.0
 13
0.865398
 23
0.445012
 33
0.0
  0
SOLID
  5
12A
  8
0
 62
     7
 10
0.877785
 20
0.469796
 30
0.0
 11
0.853012
 21
0.479089
 31
0.0
 12
0.877785
 22
0.469796
 32
0.0
 13
0.865398
 23
0.445012
 33
0.0
  0
SOLID
  5
12B
  8
0
 62
     7
 10
0.877785
 20
0.469796
 30
0.0
 11
0.865398
 21
0.445012
 31
0.0
 12
0.877785
 22
0.469796
 32
0.0
 13
0.88243
 23
0.438817
 33
0.0
  0
SOLID
  5
12C
  8
0
 62
     7
 10
0.897913
 20
0.457404
 30
0.0
 11
0.877785
 21
0.469796
 31
0.0
 12
0.897913
 22
0.457404
 32
0.0
 13
0.88243
 23
0.438817
 33
0.0
  0
SOLID
  5
12D
  8
0
 62
     7
 10
0.897913
 20
0.457404
 30
0.0
 11
0.88243
 21
0.438817
 31
0.0
 12
0.897913
 22
0.457404
 32
0.0
 13
0.896364
 23
0.429523
 33
0.0
  0
SOLID
  5
12E
  8
0
 62
     7
 10
0.921137
 20
0.44811
 30
0.0
 11
0.897913
 21
0.457404
 31
0.0
 12
0.921137
 22
0.44811
 32
0.0
 13
0.896364
 23
0.429523
 33
0.0
  0
SOLID
  5
12F
  8
0
 62
     7
 10
0.921137
 20
0.44811
 30
0.0
 11
0.896364
 21
0.429523
 31
0.0
 12
0.921137
 22
0.44811
 32
0.0
 13
0.901009
 23
0.421778
 33
0.0
  0
SOLID
  5
130
  8
0
 62
     7
 10
0.777145
 20
0.308705
 30
0.0
 11
0.767856
 21
0.296314
 31
0.0
 12
0.777145
 22
0.308705
 32
0.0
 13
0.778694
 23
0.269981
 33
0.0
  0
SOLID
  5
131
  8
0
 62
     7
 10
0.777145
 20
0.308705
 30
0.0
 11
0.778694
 21
0.269981
 31
0.0
 12
0.777145
 22
0.308705
 32
0.0
 13
0.80966
 23
0.28702
 33
0.0
  0
SOLID
  5
132
  8
0
 62
     7
 10
0.80037
 20
0.322646
 30
0.0
 11
0.777145
 21
0.308705
 31
0.0
 12
0.80037
 22
0.322646
 32
0.0
 13
0.80966
 23
0.28702
 33
0.0
  0
SOLID
  5
133
  8
0
 62
     7
 10
0.866947
 20
0.378408
 30
0.0
 11
0.842174
 21
0.364467
 31
0.0
 12
0.866947
 22
0.378408
 32
0.0
 13
0.835981
 23
0.348978
 33
0.0
  0
SOLID
  5
134
  8
0
 62
     7
 10
0.80037
 20
0.322646
 30
0.0
 11
0.80966
 21
0.28702
 31
0.0
 12
0.80037
 22
0.322646
 32
0.0
 13
0.828239
 23
0.290118
 33
0.0
  0
SOLID
  5
135
  8
0
 62
     7
 10
1.0
 20
0.44
 30
0.0
 11
1.0
 21
0.48
 31
0.0
 12
1.0
 22
0.44
 32
0.0
 13
0.961393
 23
0.458953
 33
0.0
  0
SOLID
  5
136
  8
0
 62
     7
 10
0.978424
 20
0.423327
 30
0.0
 11
1.0
 21
0.44
 31
0.0
 12
0.978424
 22
0.423327
 32
0.0
 13
0.961393
 23
0.458953
 33
0.0
  0
SOLID
  5
137
  8
0
 62
     7
 10
0.823594
 20
0.333488
 30
0.0
 11
0.80037
 21
0.322646
 31
0.0
 12
0.823594
 22
0.333488
 32
0.0
 13
0.828239
 23
0.290118
 33
0.0
  0
SOLID
  5
138
  8
0
 62
     7
 10
0.823594
 20
0.333488
 30
0.0
 11
0.828239
 21
0.290118
 31
0.0
 12
0.823594
 22
0.333488
 32
0.0
 13
0.853012
 23
0.311803
 33
0.0
  0
SOLID
  5
139
  8
0
 62
     7
 10
0.835981
 20
0.348978
 30
0.0
 11
0.823594
 21
0.333488
 31
0.0
 12
0.835981
 22
0.348978
 32
0.0
 13
0.853012
 23
0.311803
 33
0.0
  0
SOLID
  5
13A
  8
0
 62
     7
 10
0.835981
 20
0.348978
 30
0.0
 11
0.853012
 21
0.311803
 31
0.0
 12
0.835981
 22
0.348978
 32
0.0
 13
0.865398
 23
0.333488
 33
0.0
  0
SOLID
  5
13B
  8
0
 62
     7
 10
0.835981
 20
0.348978
 30
0.0
 11
0.865398
 21
0.333488
 31
0.0
 12
0.835981
 22
0.348978
 32
0.0
 13
0.874688
 23
0.347429
 33
0.0
  0
SOLID
  5
13C
  8
0
 62
     7
 10
0.866947
 20
0.378408
 30
0.0
 11
0.835981
 21
0.348978
 31
0.0
 12
0.866947
 22
0.378408
 32
0.0
 13
0.874688
 23
0.347429
 33
0.0
  0
SOLID
  5
13D
  8
0
 62
     7
 10
0.866947
 20
0.378408
 30
0.0
 11
0.874688
 21
0.347429
 31
0.0
 12
0.866947
 22
0.378408
 32
0.0
 13
0.896364
 23
0.35982
 33
0.0
  0
SOLID
  5
13E
  8
0
 62
     7
 10
0.87314
 20
0.383055
 30
0.0
 11
0.866947
 21
0.378408
 31
0.0
 12
0.87314
 22
0.383055
 32
0.0
 13
0.896364
 23
0.35982
 33
0.0
  0
SOLID
  5
13F
  8
0
 62
     7
 10
0.87314
 20
0.383055
 30
0.0
 11
0.896364
 21
0.35982
 31
0.0
 12
0.87314
 22
0.383055
 32
0.0
 13
0.907202
 23
0.376859
 33
0.0
  0
SOLID
  5
140
  8
0
 62
     7
 10
0.87314
 20
0.383055
 30
0.0
 11
0.907202
 21
0.376859
 31
0.0
 12
0.87314
 22
0.383055
 32
0.0
 13
0.913396
 23
0.386152
 33
0.0
  0
SOLID
  5
141
  8
0
 62
     7
 10
0.880881
 20
0.407838
 30
0.0
 11
0.87314
 21
0.383055
 31
0.0
 12
0.880881
 22
0.407838
 32
0.0
 13
0.913396
 23
0.386152
 33
0.0
  0
SOLID
  5
142
  8
0
 62
     7
 10
0.901009
 20
0.421778
 30
0.0
 11
0.880881
 21
0.407838
 31
0.0
 12
0.901009
 22
0.421778
 32
0.0
 13
0.913396
 23
0.386152
 33
0.0
  0
SOLID
  5
143
  8
0
 62
     7
 10
0.901009
 20
0.421778
 30
0.0
 11
0.913396
 21
0.386152
 31
0.0
 12
0.901009
 22
0.421778
 32
0.0
 13
0.92733
 23
0.395446
 33
0.0
  0
SOLID
  5
144
  8
0
 62
     7
 10
0.978424
 20
0.423327
 30
0.0
 11
0.961393
 21
0.458953
 31
0.0
 12
0.978424
 22
0.423327
 32
0.0
 13
0.939717
 23
0.451208
 33
0.0
  0
SOLID
  5
145
  8
0
 62
     7
 10
0.939717
 20
0.451208
 30
0.0
 11
0.921137
 21
0.44811
 31
0.0
 12
0.939717
 22
0.451208
 32
0.0
 13
0.901009
 23
0.421778
 33
0.0
  0
SOLID
  5
146
  8
0
 62
     7
 10
0.950555
 20
0.401642
 30
0.0
 11
0.978424
 21
0.423327
 31
0.0
 12
0.950555
 22
0.401642
 32
0.0
 13
0.939717
 23
0.451208
 33
0.0
  0
SOLID
  5
147
  8
0
 62
     7
 10
0.901009
 20
0.421778
 30
0.0
 11
0.92733
 21
0.395446
 31
0.0
 12
0.901009
 22
0.421778
 32
0.0
 13
0.950555
 23
0.401642
 33
0.0
  0
SOLID
  5
148
  8
0
 62
     7
 10
0.901009
 20
0.421778
 30
0.0
 11
0.950555
 21
0.401642
 31
0.0
 12
0.901009
 22
0.421778
 32
0.0
 13
0.939717
 23
0.451208
 33
0.0
  0
SOLID
  5
149
  8
0
 62
     7
 10
0.851656
 20
0.660404
 30
0.0
 11
0.847008
 21
0.661953
 31
0.0
 12
0.851656
 22
0.660404
 32
0.0
 13
0.839262
 23
0.661953
 33
0.0
  0
SOLID
  5
14A
  8
0
 62
     7
 10
0.851656
 20
0.660404
 30
0.0
 11
0.839262
 21
0.661953
 31
0.0
 12
0.851656
 22
0.660404
 32
0.0
 13
0.833066
 23
0.654204
 33
0.0
  0
SOLID
  5
14B
  8
0
 62
     7
 10
0.819124
 20
0.551918
 30
0.0
 11
0.822222
 21
0.53952
 31
0.0
 12
0.819124
 22
0.551918
 32
0.0
 13
0.831517
 23
0.530221
 33
0.0
  0
SOLID
  5
14C
  8
0
 62
     7
 10
0.826869
 20
0.61391
 30
0.0
 11
0.826869
 21
0.603061
 31
0.0
 12
0.826869
 22
0.61391
 32
0.0
 13
0.828418
 23
0.587563
 33
0.0
  0
SOLID
  5
14D
  8
0
 62
     7
 10
0.905876
 20
0.53642
 30
0.0
 11
0.89813
 21
0.542619
 31
0.0
 12
0.905876
 22
0.53642
 32
0.0
 13
0.881089
 23
0.545719
 33
0.0
  0
SOLID
  5
14E
  8
0
 62
     7
 10
0.943055
 20
0.830881
 30
0.0
 11
0.927564
 21
0.830881
 31
0.0
 12
0.943055
 22
0.830881
 32
0.0
 13
0.921367
 23
0.813833
 33
0.0
  0
SOLID
  5
14F
  8
0
 62
     7
 10
0.823771
 20
0.641806
 30
0.0
 11
0.817574
 21
0.635607
 31
0.0
 12
0.823771
 22
0.641806
 32
0.0
 13
0.826869
 23
0.61391
 33
0.0
  0
SOLID
  5
150
  8
0
 62
     7
 10
0.924465
 20
0.494576
 30
0.0
 11
0.932211
 21
0.493026
 31
0.0
 12
0.924465
 22
0.494576
 32
0.0
 13
0.95235
 23
0.499225
 33
0.0
  0
SOLID
  5
151
  8
0
 62
     7
 10
0.943055
 20
0.589113
 30
0.0
 11
0.936858
 21
0.575165
 31
0.0
 12
0.943055
 22
0.589113
 32
0.0
 13
0.936858
 23
0.561217
 33
0.0
  0
SOLID
  5
152
  8
0
 62
     7
 10
0.961645
 20
0.53952
 30
0.0
 11
0.967841
 21
0.555018
 31
0.0
 12
0.961645
 22
0.53952
 32
0.0
 13
0.97094
 23
0.570516
 33
0.0
  0
SOLID
  5
153
  8
0
 62
     7
 10
0.851656
 20
0.660404
 30
0.0
 11
0.833066
 21
0.654204
 31
0.0
 12
0.851656
 22
0.660404
 32
0.0
 13
0.823771
 23
0.641806
 33
0.0
  0
SOLID
  5
154
  8
0
 62
     7
 10
0.921367
 20
0.813833
 30
0.0
 11
0.929113
 21
0.795236
 31
0.0
 12
0.921367
 22
0.813833
 32
0.0
 13
0.935309
 23
0.782837
 33
0.0
  0
SOLID
  5
155
  8
0
 62
     7
 10
0.943055
 20
0.737893
 30
0.0
 11
0.943055
 21
0.720845
 31
0.0
 12
0.943055
 22
0.737893
 32
0.0
 13
0.944604
 23
0.703798
 33
0.0
  0
SOLID
  5
156
  8
0
 62
     7
 10
0.936858
 20
0.561217
 30
0.0
 11
0.930662
 21
0.53952
 31
0.0
 12
0.936858
 22
0.561217
 32
0.0
 13
0.927564
 23
0.527121
 33
0.0
  0
SOLID
  5
157
  8
0
 62
     7
 10
0.831517
 20
0.530221
 30
0.0
 11
0.842361
 21
0.516273
 31
0.0
 12
0.831517
 22
0.530221
 32
0.0
 13
0.86095
 23
0.508524
 33
0.0
  0
SOLID
  5
158
  8
0
 62
     7
 10
0.828418
 20
0.587563
 30
0.0
 11
0.822222
 21
0.567416
 31
0.0
 12
0.828418
 22
0.587563
 32
0.0
 13
0.819124
 23
0.551918
 33
0.0
  0
SOLID
  5
159
  8
0
 62
     7
 10
0.978685
 20
0.671252
 30
0.0
 11
0.978685
 21
0.691399
 31
0.0
 12
0.978685
 22
0.671252
 32
0.0
 13
0.977136
 23
0.708447
 33
0.0
  0
SOLID
  5
15A
  8
0
 62
     7
 10
0.867147
 20
0.626308
 30
0.0
 11
0.867147
 21
0.635607
 31
0.0
 12
0.867147
 22
0.626308
 32
0.0
 13
0.851656
 23
0.660404
 33
0.0
  0
SOLID
  5
15B
  8
0
 62
     7
 10
0.924465
 20
0.494576
 30
0.0
 11
0.95235
 21
0.499225
 31
0.0
 12
0.924465
 22
0.494576
 32
0.0
 13
0.955448
 23
0.517823
 33
0.0
  0
SOLID
  5
15C
  8
0
 62
     7
 10
0.978685
 20
0.747192
 30
0.0
 11
0.980234
 21
0.76114
 31
0.0
 12
0.978685
 22
0.747192
 32
0.0
 13
0.980234
 23
0.785937
 33
0.0
  0
SOLID
  5
15D
  8
0
 62
     7
 10
0.949252
 20
0.660404
 30
0.0
 11
0.950801
 21
0.638706
 31
0.0
 12
0.949252
 22
0.660404
 32
0.0
 13
0.95235
 23
0.621659
 33
0.0
  0
SOLID
  5
15E
  8
0
 62
     7
 10
0.86095
 20
0.508524
 30
0.0
 11
0.884188
 21
0.502325
 31
0.0
 12
0.86095
 22
0.508524
 32
0.0
 13
0.899679
 23
0.499225
 33
0.0
  0
SOLID
  5
15F
  8
0
 62
     7
 10
0.905876
 20
0.53642
 30
0.0
 11
0.881089
 21
0.545719
 31
0.0
 12
0.905876
 22
0.53642
 32
0.0
 13
0.865598
 23
0.545719
 33
0.0
  0
SOLID
  5
160
  8
0
 62
     7
 10
0.978685
 20
0.598412
 30
0.0
 11
0.980234
 21
0.61546
 31
0.0
 12
0.978685
 22
0.598412
 32
0.0
 13
0.981784
 23
0.643356
 33
0.0
  0
SOLID
  5
161
  8
0
 62
     7
 10
0.867147
 20
0.626308
 30
0.0
 11
0.851656
 21
0.660404
 31
0.0
 12
0.867147
 22
0.626308
 32
0.0
 13
0.823771
 23
0.641806
 33
0.0
  0
SOLID
  5
162
  8
0
 62
     7
 10
0.867147
 20
0.626308
 30
0.0
 11
0.823771
 21
0.641806
 31
0.0
 12
0.867147
 22
0.626308
 32
0.0
 13
0.826869
 23
0.61391
 33
0.0
  0
SOLID
  5
163
  8
0
 62
     7
 10
0.864049
 20
0.595312
 30
0.0
 11
0.867147
 21
0.626308
 31
0.0
 12
0.864049
 22
0.595312
 32
0.0
 13
0.826869
 23
0.61391
 33
0.0
  0
SOLID
  5
164
  8
0
 62
     7
 10
0.864049
 20
0.595312
 30
0.0
 11
0.826869
 21
0.61391
 31
0.0
 12
0.864049
 22
0.595312
 32
0.0
 13
0.828418
 23
0.587563
 33
0.0
  0
SOLID
  5
165
  8
0
 62
     7
 10
0.865598
 20
0.567416
 30
0.0
 11
0.864049
 21
0.595312
 31
0.0
 12
0.865598
 22
0.567416
 32
0.0
 13
0.828418
 23
0.587563
 33
0.0
  0
SOLID
  5
166
  8
0
 62
     7
 10
0.967841
 20
0.810733
 30
0.0
 11
0.943055
 21
0.830881
 31
0.0
 12
0.967841
 22
0.810733
 32
0.0
 13
0.921367
 23
0.813833
 33
0.0
  0
SOLID
  5
167
  8
0
 62
     7
 10
0.967841
 20
0.810733
 30
0.0
 11
0.921367
 21
0.813833
 31
0.0
 12
0.967841
 22
0.810733
 32
0.0
 13
0.935309
 23
0.782837
 33
0.0
  0
SOLID
  5
168
  8
0
 62
     7
 10
0.980234
 20
0.785937
 30
0.0
 11
0.967841
 21
0.810733
 31
0.0
 12
0.980234
 22
0.785937
 32
0.0
 13
0.935309
 23
0.782837
 33
0.0
  0
SOLID
  5
169
  8
0
 62
     7
 10
0.980234
 20
0.785937
 30
0.0
 11
0.935309
 21
0.782837
 31
0.0
 12
0.980234
 22
0.785937
 32
0.0
 13
0.941506
 23
0.76424
 33
0.0
  0
SOLID
  5
16A
  8
0
 62
     7
 10
0.978685
 20
0.747192
 30
0.0
 11
0.980234
 21
0.785937
 31
0.0
 12
0.978685
 22
0.747192
 32
0.0
 13
0.941506
 23
0.76424
 33
0.0
  0
SOLID
  5
16B
  8
0
 62
     7
 10
0.978685
 20
0.747192
 30
0.0
 11
0.941506
 21
0.76424
 31
0.0
 12
0.978685
 22
0.747192
 32
0.0
 13
0.943055
 23
0.737893
 33
0.0
  0
SOLID
  5
16C
  8
0
 62
     7
 10
0.977136
 20
0.708447
 30
0.0
 11
0.978685
 21
0.747192
 31
0.0
 12
0.977136
 22
0.708447
 32
0.0
 13
0.943055
 23
0.737893
 33
0.0
  0
SOLID
  5
16D
  8
0
 62
     7
 10
0.977136
 20
0.708447
 30
0.0
 11
0.943055
 21
0.737893
 31
0.0
 12
0.977136
 22
0.708447
 32
0.0
 13
0.944604
 23
0.703798
 33
0.0
  0
SOLID
  5
16E
  8
0
 62
     7
 10
0.977136
 20
0.708447
 30
0.0
 11
0.944604
 21
0.703798
 31
0.0
 12
0.977136
 22
0.708447
 32
0.0
 13
0.947702
 23
0.679001
 33
0.0
  0
SOLID
  5
16F
  8
0
 62
     7
 10
0.978685
 20
0.671252
 30
0.0
 11
0.977136
 21
0.708447
 31
0.0
 12
0.978685
 22
0.671252
 32
0.0
 13
0.947702
 23
0.679001
 33
0.0
  0
SOLID
  5
170
  8
0
 62
     7
 10
0.978685
 20
0.671252
 30
0.0
 11
0.947702
 21
0.679001
 31
0.0
 12
0.978685
 22
0.671252
 32
0.0
 13
0.949252
 23
0.660404
 33
0.0
  0
SOLID
  5
171
  8
0
 62
     7
 10
0.981784
 20
0.643356
 30
0.0
 11
0.978685
 21
0.671252
 31
0.0
 12
0.981784
 22
0.643356
 32
0.0
 13
0.949252
 23
0.660404
 33
0.0
  0
SOLID
  5
172
  8
0
 62
     7
 10
0.981784
 20
0.643356
 30
0.0
 11
0.949252
 21
0.660404
 31
0.0
 12
0.981784
 22
0.643356
 32
0.0
 13
0.95235
 23
0.621659
 33
0.0
  0
SOLID
  5
173
  8
0
 62
     7
 10
0.978685
 20
0.598412
 30
0.0
 11
0.981784
 21
0.643356
 31
0.0
 12
0.978685
 22
0.598412
 32
0.0
 13
0.95235
 23
0.621659
 33
0.0
  0
SOLID
  5
174
  8
0
 62
     7
 10
0.978685
 20
0.598412
 30
0.0
 11
0.95235
 21
0.621659
 31
0.0
 12
0.978685
 22
0.598412
 32
0.0
 13
0.943055
 23
0.589113
 33
0.0
  0
SOLID
  5
175
  8
0
 62
     7
 10
0.97094
 20
0.570516
 30
0.0
 11
0.978685
 21
0.598412
 31
0.0
 12
0.97094
 22
0.570516
 32
0.0
 13
0.943055
 23
0.589113
 33
0.0
  0
SOLID
  5
176
  8
0
 62
     7
 10
0.97094
 20
0.570516
 30
0.0
 11
0.943055
 21
0.589113
 31
0.0
 12
0.97094
 22
0.570516
 32
0.0
 13
0.936858
 23
0.561217
 33
0.0
  0
SOLID
  5
177
  8
0
 62
     7
 10
0.961645
 20
0.53952
 30
0.0
 11
0.97094
 21
0.570516
 31
0.0
 12
0.961645
 22
0.53952
 32
0.0
 13
0.936858
 23
0.561217
 33
0.0
  0
SOLID
  5
178
  8
0
 62
     7
 10
0.961645
 20
0.53952
 30
0.0
 11
0.936858
 21
0.561217
 31
0.0
 12
0.961645
 22
0.53952
 32
0.0
 13
0.927564
 23
0.527121
 33
0.0
  0
SOLID
  5
179
  8
0
 62
     7
 10
0.955448
 20
0.517823
 30
0.0
 11
0.961645
 21
0.53952
 31
0.0
 12
0.955448
 22
0.517823
 32
0.0
 13
0.927564
 23
0.527121
 33
0.0
  0
SOLID
  5
17A
  8
0
 62
     7
 10
0.924465
 20
0.494576
 30
0.0
 11
0.955448
 21
0.517823
 31
0.0
 12
0.924465
 22
0.494576
 32
0.0
 13
0.927564
 23
0.527121
 33
0.0
  0
SOLID
  5
17B
  8
0
 62
     7
 10
0.924465
 20
0.494576
 30
0.0
 11
0.927564
 21
0.527121
 31
0.0
 12
0.924465
 22
0.494576
 32
0.0
 13
0.921367
 23
0.524022
 33
0.0
  0
SOLID
  5
17C
  8
0
 62
     7
 10
0.899679
 20
0.499225
 30
0.0
 11
0.924465
 21
0.494576
 31
0.0
 12
0.899679
 22
0.499225
 32
0.0
 13
0.921367
 23
0.524022
 33
0.0
  0
SOLID
  5
17D
  8
0
 62
     7
 10
0.899679
 20
0.499225
 30
0.0
 11
0.921367
 21
0.524022
 31
0.0
 12
0.899679
 22
0.499225
 32
0.0
 13
0.905876
 23
0.53642
 33
0.0
  0
SOLID
  5
17E
  8
0
 62
     7
 10
0.865598
 20
0.567416
 30
0.0
 11
0.828418
 21
0.587563
 31
0.0
 12
0.865598
 22
0.567416
 32
0.0
 13
0.819124
 23
0.551918
 33
0.0
  0
SOLID
  5
17F
  8
0
 62
     7
 10
0.865598
 20
0.545719
 30
0.0
 11
0.865598
 21
0.567416
 31
0.0
 12
0.865598
 22
0.545719
 32
0.0
 13
0.819124
 23
0.551918
 33
0.0
  0
SOLID
  5
180
  8
0
 62
     7
 10
0.865598
 20
0.545719
 30
0.0
 11
0.819124
 21
0.551918
 31
0.0
 12
0.865598
 22
0.545719
 32
0.0
 13
0.831517
 23
0.530221
 33
0.0
  0
SOLID
  5
181
  8
0
 62
     7
 10
0.865598
 20
0.545719
 30
0.0
 11
0.831517
 21
0.530221
 31
0.0
 12
0.865598
 22
0.545719
 32
0.0
 13
0.86095
 23
0.508524
 33
0.0
  0
SOLID
  5
182
  8
0
 62
     7
 10
0.905876
 20
0.53642
 30
0.0
 11
0.865598
 21
0.545719
 31
0.0
 12
0.905876
 22
0.53642
 32
0.0
 13
0.86095
 23
0.508524
 33
0.0
  0
SOLID
  5
183
  8
0
 62
     7
 10
0.899679
 20
0.499225
 30
0.0
 11
0.905876
 21
0.53642
 31
0.0
 12
0.899679
 22
0.499225
 32
0.0
 13
0.86095
 23
0.508524
 33
0.0
  0
SOLID
  5
184
  8
0
 62
     7
 10
0.953899
 20
0.981211
 30
0.0
 11
0.950801
 21
0.98431
 31
0.0
 12
0.953899
 22
0.981211
 32
0.0
 13
0.939957
 23
0.992059
 33
0.0
  0
SOLID
  5
185
  8
0
 62
     7
 10
0.978685
 20
0.90992
 30
0.0
 11
0.967841
 21
0.916119
 31
0.0
 12
0.978685
 22
0.90992
 32
0.0
 13
0.960096
 23
0.90837
 33
0.0
  0
SOLID
  5
186
  8
0
 62
     7
 10
0.884188
 20
0.971912
 30
0.0
 11
0.891933
 21
0.970362
 31
0.0
 12
0.884188
 22
0.971912
 32
0.0
 13
0.905876
 23
0.970362
 33
0.0
  0
SOLID
  5
187
  8
0
 62
     7
 10
0.984882
 20
0.903721
 30
0.0
 11
0.978685
 21
0.90992
 31
0.0
 12
0.984882
 22
0.903721
 32
0.0
 13
0.960096
 23
0.90837
 33
0.0
  0
SOLID
  5
188
  8
0
 62
     7
 10
0.930662
 20
0.895972
 30
0.0
 11
0.91517
 21
0.891323
 31
0.0
 12
0.930662
 22
0.895972
 32
0.0
 13
0.905876
 23
0.885124
 33
0.0
  0
SOLID
  5
189
  8
0
 62
     7
 10
0.943055
 20
0.962613
 30
0.0
 11
0.953899
 21
0.981211
 31
0.0
 12
0.943055
 22
0.962613
 32
0.0
 13
0.939957
 23
0.992059
 33
0.0
  0
SOLID
  5
18A
  8
0
 62
     7
 10
0.966292
 20
0.860327
 30
0.0
 11
0.974038
 21
0.866526
 31
0.0
 12
0.966292
 22
0.860327
 32
0.0
 13
0.983333
 23
0.885124
 33
0.0
  0
SOLID
  5
18B
  8
0
 62
     7
 10
0.837713
 20
0.926968
 30
0.0
 11
0.840812
 21
0.916119
 31
0.0
 12
0.837713
 22
0.926968
 32
0.0
 13
0.847008
 23
0.897522
 33
0.0
  0
SOLID
  5
18C
  8
0
 62
     7
 10
0.887286
 20
0.849478
 30
0.0
 11
0.908974
 21
0.846379
 31
0.0
 12
0.887286
 22
0.849478
 32
0.0
 13
0.918269
 23
0.858777
 33
0.0
  0
SOLID
  5
18D
  8
0
 62
     7
 10
0.922916
 20
0.964163
 30
0.0
 11
0.943055
 21
0.962613
 31
0.0
 12
0.922916
 22
0.964163
 32
0.0
 13
0.939957
 23
0.992059
 33
0.0
  0
SOLID
  5
18E
  8
0
 62
     7
 10
0.983333
 20
0.885124
 30
0.0
 11
0.984882
 21
0.903721
 31
0.0
 12
0.983333
 22
0.885124
 32
0.0
 13
0.960096
 23
0.90837
 33
0.0
  0
SOLID
  5
18F
  8
0
 62
     7
 10
0.922916
 20
0.964163
 30
0.0
 11
0.939957
 21
0.992059
 31
0.0
 12
0.922916
 22
0.964163
 32
0.0
 13
0.908974
 23
0.995159
 33
0.0
  0
SOLID
  5
190
  8
0
 62
     7
 10
0.905876
 20
0.970362
 30
0.0
 11
0.922916
 21
0.964163
 31
0.0
 12
0.905876
 22
0.970362
 32
0.0
 13
0.908974
 23
0.995159
 33
0.0
  0
SOLID
  5
191
  8
0
 62
     7
 10
0.884188
 20
0.971912
 30
0.0
 11
0.905876
 21
0.970362
 31
0.0
 12
0.884188
 22
0.971912
 32
0.0
 13
0.908974
 23
0.995159
 33
0.0
  0
SOLID
  5
192
  8
0
 62
     7
 10
0.884188
 20
0.971912
 30
0.0
 11
0.908974
 21
0.995159
 31
0.0
 12
0.884188
 22
0.971912
 32
0.0
 13
0.870245
 23
0.993609
 33
0.0
  0
SOLID
  5
193
  8
0
 62
     7
 10
0.884188
 20
0.971912
 30
0.0
 11
0.870245
 21
0.993609
 31
0.0
 12
0.884188
 22
0.971912
 32
0.0
 13
0.854754
 23
0.98276
 33
0.0
  0
SOLID
  5
194
  8
0
 62
     7
 10
0.865598
 20
0.954864
 30
0.0
 11
0.884188
 21
0.971912
 31
0.0
 12
0.865598
 22
0.954864
 32
0.0
 13
0.854754
 23
0.98276
 33
0.0
  0
SOLID
  5
195
  8
0
 62
     7
 10
0.983333
 20
0.885124
 30
0.0
 11
0.960096
 21
0.90837
 31
0.0
 12
0.983333
 22
0.885124
 32
0.0
 13
0.950801
 23
0.895972
 33
0.0
  0
SOLID
  5
196
  8
0
 62
     7
 10
0.865598
 20
0.954864
 30
0.0
 11
0.854754
 21
0.98276
 31
0.0
 12
0.865598
 22
0.954864
 32
0.0
 13
0.833066
 23
0.971912
 33
0.0
  0
SOLID
  5
197
  8
0
 62
     7
 10
0.983333
 20
0.885124
 30
0.0
 11
0.950801
 21
0.895972
 31
0.0
 12
0.983333
 22
0.885124
 32
0.0
 13
0.946153
 23
0.895972
 33
0.0
  0
SOLID
  5
198
  8
0
 62
     7
 10
0.865598
 20
0.954864
 30
0.0
 11
0.833066
 21
0.971912
 31
0.0
 12
0.865598
 22
0.954864
 32
0.0
 13
0.826869
 23
0.953314
 33
0.0
  0
SOLID
  5
199
  8
0
 62
     7
 10
0.877991
 20
0.917669
 30
0.0
 11
0.877991
 21
0.933167
 31
0.0
 12
0.877991
 22
0.917669
 32
0.0
 13
0.865598
 23
0.954864
 33
0.0
  0
SOLID
  5
19A
  8
0
 62
     7
 10
0.865598
 20
0.954864
 30
0.0
 11
0.826869
 21
0.953314
 31
0.0
 12
0.865598
 22
0.954864
 32
0.0
 13
0.837713
 23
0.926968
 33
0.0
  0
SOLID
  5
19B
  8
0
 62
     7
 10
0.966292
 20
0.860327
 30
0.0
 11
0.983333
 21
0.885124
 31
0.0
 12
0.966292
 22
0.860327
 32
0.0
 13
0.946153
 23
0.895972
 33
0.0
  0
SOLID
  5
19C
  8
0
 62
     7
 10
0.935309
 20
0.864976
 30
0.0
 11
0.966292
 21
0.860327
 31
0.0
 12
0.935309
 22
0.864976
 32
0.0
 13
0.946153
 23
0.895972
 33
0.0
  0
SOLID
  5
19D
  8
0
 62
     7
 10
0.935309
 20
0.864976
 30
0.0
 11
0.946153
 21
0.895972
 31
0.0
 12
0.935309
 22
0.864976
 32
0.0
 13
0.930662
 23
0.895972
 33
0.0
  0
SOLID
  5
19E
  8
0
 62
     7
 10
0.935309
 20
0.864976
 30
0.0
 11
0.930662
 21
0.895972
 31
0.0
 12
0.935309
 22
0.864976
 32
0.0
 13
0.905876
 23
0.885124
 33
0.0
  0
SOLID
  5
19F
  8
0
 62
     7
 10
0.918269
 20
0.858777
 30
0.0
 11
0.935309
 21
0.864976
 31
0.0
 12
0.918269
 22
0.858777
 32
0.0
 13
0.905876
 23
0.885124
 33
0.0
  0
SOLID
  5
1A0
  8
0
 62
     7
 10
0.918269
 20
0.858777
 30
0.0
 11
0.905876
 21
0.885124
 31
0.0
 12
0.918269
 22
0.858777
 32
0.0
 13
0.895032
 23
0.883574
 33
0.0
  0
SOLID
  5
1A1
  8
0
 62
     7
 10
0.887286
 20
0.849478
 30
0.0
 11
0.918269
 21
0.858777
 31
0.0
 12
0.887286
 22
0.849478
 32
0.0
 13
0.895032
 23
0.883574
 33
0.0
  0
SOLID
  5
1A2
  8
0
 62
     7
 10
0.870245
 20
0.860327
 30
0.0
 11
0.887286
 21
0.849478
 31
0.0
 12
0.870245
 22
0.860327
 32
0.0
 13
0.895032
 23
0.883574
 33
0.0
  0
SOLID
  5
1A3
  8
0
 62
     7
 10
0.856303
 20
0.877375
 30
0.0
 11
0.870245
 21
0.860327
 31
0.0
 12
0.856303
 22
0.877375
 32
0.0
 13
0.895032
 23
0.883574
 33
0.0
  0
SOLID
  5
1A4
  8
0
 62
     7
 10
0.856303
 20
0.877375
 30
0.0
 11
0.895032
 21
0.883574
 31
0.0
 12
0.856303
 22
0.877375
 32
0.0
 13
0.881089
 23
0.902171
 33
0.0
  0
SOLID
  5
1A5
  8
0
 62
     7
 10
0.847008
 20
0.897522
 30
0.0
 11
0.856303
 21
0.877375
 31
0.0
 12
0.847008
 22
0.897522
 32
0.0
 13
0.881089
 23
0.902171
 33
0.0
  0
SOLID
  5
1A6
  8
0
 62
     7
 10
0.847008
 20
0.897522
 30
0.0
 11
0.881089
 21
0.902171
 31
0.0
 12
0.847008
 22
0.897522
 32
0.0
 13
0.877991
 23
0.917669
 33
0.0
  0
SOLID
  5
1A7
  8
0
 62
     7
 10
0.877991
 20
0.917669
 30
0.0
 11
0.865598
 21
0.954864
 31
0.0
 12
0.877991
 22
0.917669
 32
0.0
 13
0.837713
 23
0.926968
 33
0.0
  0
SOLID
  5
1A8
  8
0
 62
     7
 10
0.847008
 20
0.897522
 30
0.0
 11
0.877991
 21
0.917669
 31
0.0
 12
0.847008
 22
0.897522
 32
0.0
 13
0.837713
 23
0.926968
 33
0.0
  0
SOLID
  5
1A9
  8
0
 62
     7
 10
0.91672
 20
0.947115
 30
0.0
 11
0.902777
 21
0.947115
 31
0.0
 12
0.91672
 22
0.947115
 32
0.0
 13
0.89813
 23
0.944016
 33
0.0
  0
SOLID
  5
1AA
  8
0
 62
     7
 10
0.913621
 20
0.917669
 30
0.0
 11
0.924465
 21
0.917669
 31
0.0
 12
0.913621
 22
0.917669
 32
0.0
 13
0.93376
 23
0.920769
 33
0.0
  0
SOLID
  5
1AB
  8
0
 62
     7
 10
0.913621
 20
0.917669
 30
0.0
 11
0.93376
 21
0.920769
 31
0.0
 12
0.913621
 22
0.917669
 32
0.0
 13
0.93376
 23
0.939366
 33
0.0
  0
SOLID
  5
1AC
  8
0
 62
     7
 10
0.913621
 20
0.917669
 30
0.0
 11
0.93376
 21
0.939366
 31
0.0
 12
0.913621
 22
0.917669
 32
0.0
 13
0.91672
 23
0.947115
 33
0.0
  0
SOLID
  5
1AD
  8
0
 62
     7
 10
0.913621
 20
0.917669
 30
0.0
 11
0.91672
 21
0.947115
 31
0.0
 12
0.913621
 22
0.917669
 32
0.0
 13
0.89813
 23
0.944016
 33
0.0
  0
SOLID
  5
1AE
  8
0
 62
     7
 10
0.89813
 20
0.922319
 30
0.0
 11
0.913621
 21
0.917669
 31
0.0
 12
0.89813
 22
0.922319
 32
0.0
 13
0.89813
 23
0.944016
 33
0.0
  0
SOLID
  5
1AF
  8
0
 62
     7
 10
0.960898
 20
0.954864
 30
0.0
 11
0.956251
 21
0.939366
 31
0.0
 12
0.960898
 22
0.954864
 32
0.0
 13
0.963996
 23
0.930067
 33
0.0
  0
SOLID
  5
1B0
  8
0
 62
     7
 10
0.987234
 20
0.962613
 30
0.0
 11
0.970193
 21
0.964163
 31
0.0
 12
0.987234
 22
0.962613
 32
0.0
 13
0.960898
 23
0.954864
 33
0.0
  0
SOLID
  5
1B1
  8
0
 62
     7
 10
0.960898
 20
0.954864
 30
0.0
 11
0.963996
 21
0.930067
 31
0.0
 12
0.960898
 22
0.954864
 32
0.0
 13
0.982586
 23
0.925418
 33
0.0
  0
SOLID
  5
1B2
  8
0
 62
     7
 10
0.987234
 20
0.962613
 30
0.0
 11
0.960898
 21
0.954864
 31
0.0
 12
0.987234
 22
0.962613
 32
0.0
 13
0.982586
 23
0.925418
 33
0.0
  0
SOLID
  5
1B3
  8
0
 62
     7
 10
0.982586
 20
0.925418
 30
0.0
 11
1.0
 21
0.92
 31
0.0
 12
0.982586
 22
0.925418
 32
0.0
 13
1.0
 23
0.96
 33
0.0
  0
SOLID
  5
1B4
  8
0
 62
     7
 10
0.982586
 20
0.925418
 30
0.0
 11
1.0
 21
0.96
 31
0.0
 12
0.982586
 22
0.925418
 32
0.0
 13
0.987234
 23
0.962613
 33
0.0
  0
SOLID
  5
1B5
  8
0
 62
     7
 10
0.657926
 20
0.988693
 30
0.0
 11
0.647088
 21
0.982497
 31
0.0
 12
0.657926
 22
0.988693
 32
0.0
 13
0.642443
 23
0.976301
 33
0.0
  0
SOLID
  5
1B6
  8
0
 62
     7
 10
0.495355
 20
0.991791
 30
0.0
 11
0.484517
 21
0.99334
 31
0.0
 12
0.495355
 22
0.991791
 32
0.0
 13
0.475227
 23
0.987144
 33
0.0
  0
SOLID
  5
1B7
  8
0
 62
     7
 10
0.475227
 20
0.987144
 30
0.0
 11
0.472131
 21
0.971654
 31
0.0
 12
0.475227
 22
0.987144
 32
0.0
 13
0.475227
 23
0.965458
 33
0.0
  0
SOLID
  5
1B8
  8
0
 62
     7
 10
0.628509
 20
0.960812
 30
0.0
 11
0.623864
 21
0.960812
 31
0.0
 12
0.628509
 22
0.960812
 32
0.0
 13
0.608381
 23
0.951518
 33
0.0
  0
SOLID
  5
1B9
  8
0
 62
     7
 10
0.681151
 20
0.968556
 30
0.0
 11
0.690441
 21
0.985595
 31
0.0
 12
0.681151
 22
0.968556
 32
0.0
 13
0.671861
 23
0.990242
 33
0.0
  0
SOLID
  5
1BA
  8
0
 62
     7
 10
0.608381
 20
0.903501
 30
0.0
 11
0.623864
 21
0.903501
 31
0.0
 12
0.608381
 22
0.903501
 32
0.0
 13
0.634702
 23
0.90505
 33
0.0
  0
SOLID
  5
1BB
  8
0
 62
     7
 10
0.551094
 20
0.91899
 30
0.0
 11
0.57277
 21
0.912794
 31
0.0
 12
0.551094
 22
0.91899
 32
0.0
 13
0.578963
 23
0.912794
 33
0.0
  0
SOLID
  5
1BC
  8
0
 62
     7
 10
0.634702
 20
0.90505
 30
0.0
 11
0.648637
 21
0.914343
 31
0.0
 12
0.634702
 22
0.90505
 32
0.0
 13
0.651733
 23
0.928284
 33
0.0
  0
SOLID
  5
1BD
  8
0
 62
     7
 10
0.651733
 20
0.928284
 30
0.0
 11
0.661023
 21
0.939126
 31
0.0
 12
0.651733
 22
0.928284
 32
0.0
 13
0.66412
 23
0.956165
 33
0.0
  0
SOLID
  5
1BE
  8
0
 62
     7
 10
0.681151
 20
0.968556
 30
0.0
 11
0.671861
 21
0.990242
 31
0.0
 12
0.681151
 22
0.968556
 32
0.0
 13
0.657926
 23
0.988693
 33
0.0
  0
SOLID
  5
1BF
  8
0
 62
     7
 10
0.507741
 20
0.984046
 30
0.0
 11
0.495355
 21
0.991791
 31
0.0
 12
0.507741
 22
0.984046
 32
0.0
 13
0.475227
 23
0.987144
 33
0.0
  0
SOLID
  5
1C0
  8
0
 62
     7
 10
0.66412
 20
0.956165
 30
0.0
 11
0.681151
 21
0.968556
 31
0.0
 12
0.66412
 22
0.956165
 32
0.0
 13
0.657926
 23
0.988693
 33
0.0
  0
SOLID
  5
1C1
  8
0
 62
     7
 10
0.66412
 20
0.956165
 30
0.0
 11
0.657926
 21
0.988693
 31
0.0
 12
0.66412
 22
0.956165
 32
0.0
 13
0.642443
 23
0.976301
 33
0.0
  0
SOLID
  5
1C2
  8
0
 62
     7
 10
0.66412
 20
0.956165
 30
0.0
 11
0.642443
 21
0.976301
 31
0.0
 12
0.66412
 22
0.956165
 32
0.0
 13
0.628509
 23
0.960812
 33
0.0
  0
SOLID
  5
1C3
  8
0
 62
     7
 10
0.507741
 20
0.984046
 30
0.0
 11
0.475227
 21
0.987144
 31
0.0
 12
0.507741
 22
0.984046
 32
0.0
 13
0.475227
 23
0.965458
 33
0.0
  0
SOLID
  5
1C4
  8
0
 62
     7
 10
0.507741
 20
0.984046
 30
0.0
 11
0.475227
 21
0.965458
 31
0.0
 12
0.507741
 22
0.984046
 32
0.0
 13
0.492259
 23
0.949969
 33
0.0
  0
SOLID
  5
1C5
  8
0
 62
     7
 10
0.51858
 20
0.97785
 30
0.0
 11
0.507741
 21
0.984046
 31
0.0
 12
0.51858
 22
0.97785
 32
0.0
 13
0.492259
 23
0.949969
 33
0.0
  0
SOLID
  5
1C6
  8
0
 62
     7
 10
0.651733
 20
0.928284
 30
0.0
 11
0.66412
 21
0.956165
 31
0.0
 12
0.651733
 22
0.928284
 32
0.0
 13
0.628509
 23
0.960812
 33
0.0
  0
SOLID
  5
1C7
  8
0
 62
     7
 10
0.51858
 20
0.97785
 30
0.0
 11
0.492259
 21
0.949969
 31
0.0
 12
0.51858
 22
0.97785
 32
0.0
 13
0.517031
 23
0.937577
 33
0.0
  0
SOLID
  5
1C8
  8
0
 62
     7
 10
0.534063
 20
0.970105
 30
0.0
 11
0.51858
 21
0.97785
 31
0.0
 12
0.534063
 22
0.970105
 32
0.0
 13
0.517031
 23
0.937577
 33
0.0
  0
SOLID
  5
1C9
  8
0
 62
     7
 10
0.534063
 20
0.970105
 30
0.0
 11
0.517031
 21
0.937577
 31
0.0
 12
0.534063
 22
0.970105
 32
0.0
 13
0.534063
 23
0.931382
 33
0.0
  0
SOLID
  5
1CA
  8
0
 62
     7
 10
0.546449
 20
0.965458
 30
0.0
 11
0.534063
 21
0.970105
 31
0.0
 12
0.546449
 22
0.965458
 32
0.0
 13
0.534063
 23
0.931382
 33
0.0
  0
SOLID
  5
1CB
  8
0
 62
     7
 10
0.594446
 20
0.909696
 30
0.0
 11
0.608381
 21
0.903501
 31
0.0
 12
0.594446
 22
0.909696
 32
0.0
 13
0.634702
 23
0.90505
 33
0.0
  0
SOLID
  5
1CC
  8
0
 62
     7
 10
0.565029
 20
0.959263
 30
0.0
 11
0.546449
 21
0.965458
 31
0.0
 12
0.565029
 22
0.959263
 32
0.0
 13
0.534063
 23
0.931382
 33
0.0
  0
SOLID
  5
1CD
  8
0
 62
     7
 10
0.565029
 20
0.959263
 30
0.0
 11
0.534063
 21
0.931382
 31
0.0
 12
0.565029
 22
0.959263
 32
0.0
 13
0.551094
 23
0.91899
 33
0.0
  0
SOLID
  5
1CE
  8
0
 62
     7
 10
0.551094
 20
0.91899
 30
0.0
 11
0.578963
 21
0.912794
 31
0.0
 12
0.551094
 22
0.91899
 32
0.0
 13
0.594446
 23
0.909696
 33
0.0
  0
SOLID
  5
1CF
  8
0
 62
     7
 10
0.583608
 20
0.954616
 30
0.0
 11
0.565029
 21
0.959263
 31
0.0
 12
0.583608
 22
0.954616
 32
0.0
 13
0.551094
 23
0.91899
 33
0.0
  0
SOLID
  5
1D0
  8
0
 62
     7
 10
0.583608
 20
0.954616
 30
0.0
 11
0.551094
 21
0.91899
 31
0.0
 12
0.583608
 22
0.954616
 32
0.0
 13
0.594446
 23
0.909696
 33
0.0
  0
SOLID
  5
1D1
  8
0
 62
     7
 10
0.608381
 20
0.951518
 30
0.0
 11
0.583608
 21
0.954616
 31
0.0
 12
0.608381
 22
0.951518
 32
0.0
 13
0.594446
 23
0.909696
 33
0.0
  0
SOLID
  5
1D2
  8
0
 62
     7
 10
0.651733
 20
0.928284
 30
0.0
 11
0.628509
 21
0.960812
 31
0.0
 12
0.651733
 22
0.928284
 32
0.0
 13
0.608381
 23
0.951518
 33
0.0
  0
SOLID
  5
1D3
  8
0
 62
     7
 10
0.634702
 20
0.90505
 30
0.0
 11
0.651733
 21
0.928284
 31
0.0
 12
0.634702
 22
0.90505
 32
0.0
 13
0.608381
 23
0.951518
 33
0.0
  0
SOLID
  5
1D4
  8
0
 62
     7
 10
0.594446
 20
0.909696
 30
0.0
 11
0.634702
 21
0.90505
 31
0.0
 12
0.594446
 22
0.909696
 32
0.0
 13
0.608381
 23
0.951518
 33
0.0
  0
SOLID
  5
1D5
  8
0
 62
     7
 10
0.374588
 20
0.514715
 30
0.0
 11
0.379233
 21
0.510068
 31
0.0
 12
0.374588
 22
0.514715
 32
0.0
 13
0.391619
 23
0.510068
 33
0.0
  0
SOLID
  5
1D6
  8
0
 62
     7
 10
0.589801
 20
0.849287
 30
0.0
 11
0.592898
 21
0.866326
 31
0.0
 12
0.589801
 22
0.849287
 32
0.0
 13
0.585156
 23
0.872522
 33
0.0
  0
SOLID
  5
1D7
  8
0
 62
     7
 10
0.314204
 20
0.784232
 30
0.0
 11
0.317301
 21
0.765644
 31
0.0
 12
0.314204
 22
0.784232
 32
0.0
 13
0.321946
 23
0.760998
 33
0.0
  0
SOLID
  5
1D8
  8
0
 62
     7
 10
0.470582
 20
0.652571
 30
0.0
 11
0.462841
 21
0.663414
 31
0.0
 12
0.470582
 22
0.652571
 32
0.0
 13
0.452003
 23
0.671159
 33
0.0
  0
SOLID
  5
1D9
  8
0
 62
     7
 10
0.560384
 20
0.620043
 30
0.0
 11
0.568125
 21
0.61075
 31
0.0
 12
0.560384
 22
0.620043
 32
0.0
 13
0.588253
 23
0.621592
 33
0.0
  0
SOLID
  5
1DA
  8
0
 62
     7
 10
0.369943
 20
0.528656
 30
0.0
 11
0.374588
 21
0.514715
 31
0.0
 12
0.369943
 22
0.528656
 32
0.0
 13
0.391619
 23
0.510068
 33
0.0
  0
SOLID
  5
1DB
  8
0
 62
     7
 10
0.444261
 20
0.971654
 30
0.0
 11
0.444261
 21
0.97785
 31
0.0
 12
0.444261
 22
0.971654
 32
0.0
 13
0.44
 23
1.0
 33
0.0
  0
SOLID
  5
1DC
  8
0
 62
     7
 10
0.416392
 20
0.717627
 30
0.0
 11
0.400909
 21
0.703686
 31
0.0
 12
0.416392
 22
0.717627
 32
0.0
 13
0.404006
 23
0.688197
 33
0.0
  0
SOLID
  5
1DD
  8
0
 62
     7
 10
0.325042
 20
0.793525
 30
0.0
 11
0.314204
 21
0.784232
 31
0.0
 12
0.325042
 22
0.793525
 32
0.0
 13
0.321946
 23
0.760998
 33
0.0
  0
SOLID
  5
1DE
  8
0
 62
     7
 10
0.438068
 20
0.781134
 30
0.0
 11
0.431875
 21
0.791976
 31
0.0
 12
0.438068
 22
0.781134
 32
0.0
 13
0.416392
 23
0.805917
 33
0.0
  0
SOLID
  5
1DF
  8
0
 62
     7
 10
0.577415
 20
0.839994
 30
0.0
 11
0.589801
 21
0.849287
 31
0.0
 12
0.577415
 22
0.839994
 32
0.0
 13
0.585156
 23
0.872522
 33
0.0
  0
SOLID
  5
1E0
  8
0
 62
     7
 10
0.369943
 20
0.528656
 30
0.0
 11
0.391619
 21
0.510068
 31
0.0
 12
0.369943
 22
0.528656
 32
0.0
 13
0.405554
 23
0.533302
 33
0.0
  0
SOLID
  5
1E1
  8
0
 62
     7
 10
0.321946
 20
0.760998
 30
0.0
 11
0.342074
 21
0.760998
 31
0.0
 12
0.321946
 22
0.760998
 32
0.0
 13
0.356008
 23
0.773389
 33
0.0
  0
SOLID
  5
1E2
  8
0
 62
     7
 10
0.325042
 20
0.793525
 30
0.0
 11
0.321946
 21
0.760998
 31
0.0
 12
0.325042
 22
0.793525
 32
0.0
 13
0.356008
 23
0.773389
 33
0.0
  0
SOLID
  5
1E3
  8
0
 62
     7
 10
0.343622
 20
0.80127
 30
0.0
 11
0.325042
 21
0.793525
 31
0.0
 12
0.343622
 22
0.80127
 32
0.0
 13
0.356008
 23
0.773389
 33
0.0
  0
SOLID
  5
1E4
  8
0
 62
     7
 10
0.343622
 20
0.80127
 30
0.0
 11
0.356008
 21
0.773389
 31
0.0
 12
0.343622
 22
0.80127
 32
0.0
 13
0.366846
 23
0.782683
 33
0.0
  0
SOLID
  5
1E5
  8
0
 62
     7
 10
0.35446
 20
0.805917
 30
0.0
 11
0.343622
 21
0.80127
 31
0.0
 12
0.35446
 22
0.805917
 32
0.0
 13
0.366846
 23
0.782683
 33
0.0
  0
SOLID
  5
1E6
  8
0
 62
     7
 10
0.366846
 20
0.815211
 30
0.0
 11
0.35446
 21
0.805917
 31
0.0
 12
0.366846
 22
0.815211
 32
0.0
 13
0.366846
 23
0.782683
 33
0.0
  0
SOLID
  5
1E7
  8
0
 62
     7
 10
0.366846
 20
0.815211
 30
0.0
 11
0.366846
 21
0.782683
 31
0.0
 12
0.366846
 22
0.815211
 32
0.0
 13
0.383878
 23
0.785781
 33
0.0
  0
SOLID
  5
1E8
  8
0
 62
     7
 10
0.376136
 20
0.556537
 30
0.0
 11
0.369943
 21
0.528656
 31
0.0
 12
0.376136
 22
0.556537
 32
0.0
 13
0.405554
 23
0.533302
 33
0.0
  0
SOLID
  5
1E9
  8
0
 62
     7
 10
0.462841
 20
0.592162
 30
0.0
 11
0.478324
 21
0.612299
 31
0.0
 12
0.462841
 22
0.592162
 32
0.0
 13
0.479872
 23
0.626239
 33
0.0
  0
SOLID
  5
1EA
  8
0
 62
     7
 10
0.560384
 20
0.620043
 30
0.0
 11
0.588253
 21
0.621592
 31
0.0
 12
0.560384
 22
0.620043
 32
0.0
 13
0.592898
 23
0.641729
 33
0.0
  0
SOLID
  5
1EB
  8
0
 62
     7
 10
0.555739
 20
0.646375
 30
0.0
 11
0.560384
 21
0.620043
 31
0.0
 12
0.555739
 22
0.646375
 32
0.0
 13
0.592898
 23
0.641729
 33
0.0
  0
SOLID
  5
1EC
  8
0
 62
     7
 10
0.416392
 20
0.612299
 30
0.0
 11
0.404006
 21
0.599907
 31
0.0
 12
0.416392
 22
0.612299
 32
0.0
 13
0.391619
 23
0.58132
 33
0.0
  0
SOLID
  5
1ED
  8
0
 62
     7
 10
0.555739
 20
0.646375
 30
0.0
 11
0.592898
 21
0.641729
 31
0.0
 12
0.555739
 22
0.646375
 32
0.0
 13
0.586705
 23
0.672708
 33
0.0
  0
SOLID
  5
1EE
  8
0
 62
     7
 10
0.450454
 20
0.740861
 30
0.0
 11
0.447358
 21
0.759449
 31
0.0
 12
0.450454
 22
0.740861
 32
0.0
 13
0.438068
 23
0.781134
 33
0.0
  0
SOLID
  5
1EF
  8
0
 62
     7
 10
0.376136
 20
0.556537
 30
0.0
 11
0.405554
 21
0.533302
 31
0.0
 12
0.376136
 22
0.556537
 32
0.0
 13
0.41794
 23
0.56583
 33
0.0
  0
SOLID
  5
1F0
  8
0
 62
     7
 10
0.391619
 20
0.58132
 30
0.0
 11
0.376136
 21
0.556537
 31
0.0
 12
0.391619
 22
0.58132
 32
0.0
 13
0.41794
 23
0.56583
 33
0.0
  0
SOLID
  5
1F1
  8
0
 62
     7
 10
0.391619
 20
0.58132
 30
0.0
 11
0.41794
 21
0.56583
 31
0.0
 12
0.391619
 22
0.58132
 32
0.0
 13
0.428778
 23
0.576673
 33
0.0
  0
SOLID
  5
1F2
  8
0
 62
     7
 10
0.416392
 20
0.612299
 30
0.0
 11
0.391619
 21
0.58132
 31
0.0
 12
0.416392
 22
0.612299
 32
0.0
 13
0.428778
 23
0.576673
 33
0.0
  0
SOLID
  5
1F3
  8
0
 62
     7
 10
0.416392
 20
0.612299
 30
0.0
 11
0.428778
 21
0.576673
 31
0.0
 12
0.416392
 22
0.612299
 32
0.0
 13
0.447358
 23
0.589064
 33
0.0
  0
SOLID
  5
1F4
  8
0
 62
     7
 10
0.577415
 20
0.839994
 30
0.0
 11
0.585156
 21
0.872522
 31
0.0
 12
0.577415
 22
0.839994
 32
0.0
 13
0.558835
 23
0.878717
 33
0.0
  0
SOLID
  5
1F5
  8
0
 62
     7
 10
0.551094
 20
0.839994
 30
0.0
 11
0.577415
 21
0.839994
 31
0.0
 12
0.551094
 22
0.839994
 32
0.0
 13
0.558835
 23
0.878717
 33
0.0
  0
SOLID
  5
1F6
  8
0
 62
     7
 10
0.362201
 20
0.870973
 30
0.0
 11
0.362201
 21
0.844641
 31
0.0
 12
0.362201
 22
0.870973
 32
0.0
 13
0.365298
 23
0.827602
 33
0.0
  0
SOLID
  5
1F7
  8
0
 62
     7
 10
0.366846
 20
0.815211
 30
0.0
 11
0.383878
 21
0.785781
 31
0.0
 12
0.366846
 22
0.815211
 32
0.0
 13
0.396264
 23
0.782683
 33
0.0
  0
SOLID
  5
1F8
  8
0
 62
     7
 10
0.543352
 20
0.664963
 30
0.0
 11
0.555739
 21
0.646375
 31
0.0
 12
0.543352
 22
0.664963
 32
0.0
 13
0.586705
 23
0.672708
 33
0.0
  0
SOLID
  5
1F9
  8
0
 62
     7
 10
0.543352
 20
0.664963
 30
0.0
 11
0.586705
 21
0.672708
 31
0.0
 12
0.543352
 22
0.664963
 32
0.0
 13
0.569673
 23
0.691295
 33
0.0
  0
SOLID
  5
1FA
  8
0
 62
     7
 10
0.543352
 20
0.664963
 30
0.0
 11
0.569673
 21
0.691295
 31
0.0
 12
0.543352
 22
0.664963
 32
0.0
 13
0.543352
 23
0.706784
 33
0.0
  0
SOLID
  5
1FB
  8
0
 62
     7
 10
0.527869
 20
0.678903
 30
0.0
 11
0.543352
 21
0.664963
 31
0.0
 12
0.527869
 22
0.678903
 32
0.0
 13
0.543352
 23
0.706784
 33
0.0
  0
SOLID
  5
1FC
  8
0
 62
     7
 10
0.527869
 20
0.678903
 30
0.0
 11
0.543352
 21
0.706784
 31
0.0
 12
0.527869
 22
0.678903
 32
0.0
 13
0.523224
 23
0.71298
 33
0.0
  0
SOLID
  5
1FD
  8
0
 62
     7
 10
0.515483
 20
0.68355
 30
0.0
 11
0.527869
 21
0.678903
 31
0.0
 12
0.515483
 22
0.68355
 32
0.0
 13
0.523224
 23
0.71298
 33
0.0
  0
SOLID
  5
1FE
  8
0
 62
     7
 10
0.486065
 20
0.694393
 30
0.0
 11
0.515483
 21
0.68355
 31
0.0
 12
0.486065
 22
0.694393
 32
0.0
 13
0.523224
 23
0.71298
 33
0.0
  0
SOLID
  5
1FF
  8
0
 62
     7
 10
0.486065
 20
0.694393
 30
0.0
 11
0.523224
 21
0.71298
 31
0.0
 12
0.486065
 22
0.694393
 32
0.0
 13
0.496903
 23
0.725372
 33
0.0
  0
SOLID
  5
200
  8
0
 62
     7
 10
0.456648
 20
0.706784
 30
0.0
 11
0.486065
 21
0.694393
 31
0.0
 12
0.456648
 22
0.706784
 32
0.0
 13
0.496903
 23
0.725372
 33
0.0
  0
SOLID
  5
201
  8
0
 62
     7
 10
0.456648
 20
0.706784
 30
0.0
 11
0.496903
 21
0.725372
 31
0.0
 12
0.456648
 22
0.706784
 32
0.0
 13
0.470582
 23
0.737763
 33
0.0
  0
SOLID
  5
202
  8
0
 62
     7
 10
0.456648
 20
0.706784
 30
0.0
 11
0.470582
 21
0.737763
 31
0.0
 12
0.456648
 22
0.706784
 32
0.0
 13
0.450454
 23
0.740861
 33
0.0
  0
SOLID
  5
203
  8
0
 62
     7
 10
0.442713
 20
0.703686
 30
0.0
 11
0.456648
 21
0.706784
 31
0.0
 12
0.442713
 22
0.703686
 32
0.0
 13
0.450454
 23
0.740861
 33
0.0
  0
SOLID
  5
204
  8
0
 62
     7
 10
0.44
 20
1.0
 30
0.0
 11
0.4
 21
1.0
 31
0.0
 12
0.44
 22
1.0
 32
0.0
 13
0.411747
 23
0.965458
 33
0.0
  0
SOLID
  5
205
  8
0
 62
     7
 10
0.444261
 20
0.971654
 30
0.0
 11
0.44
 21
1.0
 31
0.0
 12
0.444261
 22
0.971654
 32
0.0
 13
0.411747
 23
0.965458
 33
0.0
  0
SOLID
  5
206
  8
0
 62
     7
 10
0.444261
 20
0.94842
 30
0.0
 11
0.444261
 21
0.971654
 31
0.0
 12
0.444261
 22
0.94842
 32
0.0
 13
0.411747
 23
0.965458
 33
0.0
  0
SOLID
  5
207
  8
0
 62
     7
 10
0.444261
 20
0.94842
 30
0.0
 11
0.411747
 21
0.965458
 31
0.0
 12
0.444261
 22
0.94842
 32
0.0
 13
0.411747
 23
0.940675
 33
0.0
  0
SOLID
  5
208
  8
0
 62
     7
 10
0.447358
 20
0.945322
 30
0.0
 11
0.444261
 21
0.94842
 31
0.0
 12
0.447358
 22
0.945322
 32
0.0
 13
0.411747
 23
0.940675
 33
0.0
  0
SOLID
  5
209
  8
0
 62
     7
 10
0.386974
 20
0.908147
 30
0.0
 11
0.371491
 21
0.894207
 31
0.0
 12
0.386974
 22
0.908147
 32
0.0
 13
0.362201
 23
0.870973
 33
0.0
  0
SOLID
  5
20A
  8
0
 62
     7
 10
0.551094
 20
0.839994
 30
0.0
 11
0.558835
 21
0.878717
 31
0.0
 12
0.551094
 22
0.839994
 32
0.0
 13
0.534063
 23
0.881815
 33
0.0
  0
SOLID
  5
20B
  8
0
 62
     7
 10
0.529418
 20
0.841543
 30
0.0
 11
0.551094
 21
0.839994
 31
0.0
 12
0.529418
 22
0.841543
 32
0.0
 13
0.534063
 23
0.881815
 33
0.0
  0
SOLID
  5
20C
  8
0
 62
     7
 10
0.498452
 20
0.853934
 30
0.0
 11
0.529418
 21
0.841543
 31
0.0
 12
0.498452
 22
0.853934
 32
0.0
 13
0.534063
 23
0.881815
 33
0.0
  0
SOLID
  5
20D
  8
0
 62
     7
 10
0.498452
 20
0.853934
 30
0.0
 11
0.534063
 21
0.881815
 31
0.0
 12
0.498452
 22
0.853934
 32
0.0
 13
0.517031
 23
0.892658
 33
0.0
  0
SOLID
  5
20E
  8
0
 62
     7
 10
0.482969
 20
0.866326
 30
0.0
 11
0.498452
 21
0.853934
 31
0.0
 12
0.482969
 22
0.866326
 32
0.0
 13
0.517031
 23
0.892658
 33
0.0
  0
SOLID
  5
20F
  8
0
 62
     7
 10
0.425682
 20
0.632435
 30
0.0
 11
0.416392
 21
0.612299
 31
0.0
 12
0.425682
 22
0.632435
 32
0.0
 13
0.447358
 23
0.589064
 33
0.0
  0
SOLID
  5
210
  8
0
 62
     7
 10
0.447358
 20
0.589064
 30
0.0
 11
0.462841
 21
0.592162
 31
0.0
 12
0.447358
 22
0.589064
 32
0.0
 13
0.479872
 23
0.626239
 33
0.0
  0
SOLID
  5
211
  8
0
 62
     7
 10
0.416392
 20
0.717627
 30
0.0
 11
0.404006
 21
0.688197
 31
0.0
 12
0.416392
 22
0.717627
 32
0.0
 13
0.410199
 23
0.668061
 33
0.0
  0
SOLID
  5
212
  8
0
 62
     7
 10
0.447358
 20
0.945322
 30
0.0
 11
0.411747
 21
0.940675
 31
0.0
 12
0.447358
 22
0.945322
 32
0.0
 13
0.402457
 23
0.922088
 33
0.0
  0
SOLID
  5
213
  8
0
 62
     7
 10
0.465937
 20
0.892658
 30
0.0
 11
0.482969
 21
0.866326
 31
0.0
 12
0.465937
 22
0.892658
 32
0.0
 13
0.517031
 23
0.892658
 33
0.0
  0
SOLID
  5
214
  8
0
 62
     7
 10
0.465937
 20
0.892658
 30
0.0
 11
0.517031
 21
0.892658
 31
0.0
 12
0.465937
 22
0.892658
 32
0.0
 13
0.492259
 23
0.91899
 33
0.0
  0
SOLID
  5
215
  8
0
 62
     7
 10
0.465937
 20
0.892658
 30
0.0
 11
0.492259
 21
0.91899
 31
0.0
 12
0.465937
 22
0.892658
 32
0.0
 13
0.464389
 23
0.936029
 33
0.0
  0
SOLID
  5
216
  8
0
 62
     7
 10
0.43652
 20
0.90505
 30
0.0
 11
0.465937
 21
0.892658
 31
0.0
 12
0.43652
 22
0.90505
 32
0.0
 13
0.464389
 23
0.936029
 33
0.0
  0
SOLID
  5
217
  8
0
 62
     7
 10
0.43652
 20
0.90505
 30
0.0
 11
0.464389
 21
0.936029
 31
0.0
 12
0.43652
 22
0.90505
 32
0.0
 13
0.447358
 23
0.945322
 33
0.0
  0
SOLID
  5
218
  8
0
 62
     7
 10
0.43652
 20
0.90505
 30
0.0
 11
0.447358
 21
0.945322
 31
0.0
 12
0.43652
 22
0.90505
 32
0.0
 13
0.402457
 23
0.922088
 33
0.0
  0
SOLID
  5
219
  8
0
 62
     7
 10
0.424133
 20
0.898854
 30
0.0
 11
0.43652
 21
0.90505
 31
0.0
 12
0.424133
 22
0.898854
 32
0.0
 13
0.402457
 23
0.922088
 33
0.0
  0
SOLID
  5
21A
  8
0
 62
     7
 10
0.41794
 20
0.892658
 30
0.0
 11
0.424133
 21
0.898854
 31
0.0
 12
0.41794
 22
0.892658
 32
0.0
 13
0.402457
 23
0.922088
 33
0.0
  0
SOLID
  5
21B
  8
0
 62
     7
 10
0.41794
 20
0.892658
 30
0.0
 11
0.402457
 21
0.922088
 31
0.0
 12
0.41794
 22
0.892658
 32
0.0
 13
0.386974
 23
0.908147
 33
0.0
  0
SOLID
  5
21C
  8
0
 62
     7
 10
0.402457
 20
0.870973
 30
0.0
 11
0.41794
 21
0.892658
 31
0.0
 12
0.402457
 22
0.870973
 32
0.0
 13
0.386974
 23
0.908147
 33
0.0
  0
SOLID
  5
21D
  8
0
 62
     7
 10
0.402457
 20
0.870973
 30
0.0
 11
0.386974
 21
0.908147
 31
0.0
 12
0.402457
 22
0.870973
 32
0.0
 13
0.362201
 23
0.870973
 33
0.0
  0
SOLID
  5
21E
  8
0
 62
     7
 10
0.397812
 20
0.858581
 30
0.0
 11
0.402457
 21
0.870973
 31
0.0
 12
0.397812
 22
0.858581
 32
0.0
 13
0.362201
 23
0.870973
 33
0.0
  0
SOLID
  5
21F
  8
0
 62
     7
 10
0.397812
 20
0.858581
 30
0.0
 11
0.362201
 21
0.870973
 31
0.0
 12
0.397812
 22
0.858581
 32
0.0
 13
0.365298
 23
0.827602
 33
0.0
  0
SOLID
  5
220
  8
0
 62
     7
 10
0.394716
 20
0.8307
 30
0.0
 11
0.397812
 21
0.858581
 31
0.0
 12
0.394716
 22
0.8307
 32
0.0
 13
0.365298
 23
0.827602
 33
0.0
  0
SOLID
  5
221
  8
0
 62
     7
 10
0.394716
 20
0.8307
 30
0.0
 11
0.365298
 21
0.827602
 31
0.0
 12
0.394716
 22
0.8307
 32
0.0
 13
0.366846
 23
0.815211
 33
0.0
  0
SOLID
  5
222
  8
0
 62
     7
 10
0.397812
 20
0.819857
 30
0.0
 11
0.394716
 21
0.8307
 31
0.0
 12
0.397812
 22
0.819857
 32
0.0
 13
0.366846
 23
0.815211
 33
0.0
  0
SOLID
  5
223
  8
0
 62
     7
 10
0.397812
 20
0.819857
 30
0.0
 11
0.366846
 21
0.815211
 31
0.0
 12
0.397812
 22
0.819857
 32
0.0
 13
0.396264
 23
0.782683
 33
0.0
  0
SOLID
  5
224
  8
0
 62
     7
 10
0.416392
 20
0.805917
 30
0.0
 11
0.397812
 21
0.819857
 31
0.0
 12
0.416392
 22
0.805917
 32
0.0
 13
0.396264
 23
0.782683
 33
0.0
  0
SOLID
  5
225
  8
0
 62
     7
 10
0.416392
 20
0.805917
 30
0.0
 11
0.396264
 21
0.782683
 31
0.0
 12
0.416392
 22
0.805917
 32
0.0
 13
0.410199
 23
0.767193
 33
0.0
  0
SOLID
  5
226
  8
0
 62
     7
 10
0.438068
 20
0.781134
 30
0.0
 11
0.416392
 21
0.805917
 31
0.0
 12
0.438068
 22
0.781134
 32
0.0
 13
0.410199
 23
0.767193
 33
0.0
  0
SOLID
  5
227
  8
0
 62
     7
 10
0.438068
 20
0.781134
 30
0.0
 11
0.410199
 21
0.767193
 31
0.0
 12
0.438068
 22
0.781134
 32
0.0
 13
0.414844
 23
0.751704
 33
0.0
  0
SOLID
  5
228
  8
0
 62
     7
 10
0.450454
 20
0.740861
 30
0.0
 11
0.438068
 21
0.781134
 31
0.0
 12
0.450454
 22
0.740861
 32
0.0
 13
0.414844
 23
0.751704
 33
0.0
  0
SOLID
  5
229
  8
0
 62
     7
 10
0.450454
 20
0.740861
 30
0.0
 11
0.414844
 21
0.751704
 31
0.0
 12
0.450454
 22
0.740861
 32
0.0
 13
0.416392
 23
0.731568
 33
0.0
  0
SOLID
  5
22A
  8
0
 62
     7
 10
0.442713
 20
0.703686
 30
0.0
 11
0.450454
 21
0.740861
 31
0.0
 12
0.442713
 22
0.703686
 32
0.0
 13
0.416392
 23
0.731568
 33
0.0
  0
SOLID
  5
22B
  8
0
 62
     7
 10
0.442713
 20
0.703686
 30
0.0
 11
0.416392
 21
0.731568
 31
0.0
 12
0.442713
 22
0.703686
 32
0.0
 13
0.416392
 23
0.717627
 33
0.0
  0
SOLID
  5
22C
  8
0
 62
     7
 10
0.439616
 20
0.688197
 30
0.0
 11
0.442713
 21
0.703686
 31
0.0
 12
0.439616
 22
0.688197
 32
0.0
 13
0.416392
 23
0.717627
 33
0.0
  0
SOLID
  5
22D
  8
0
 62
     7
 10
0.439616
 20
0.688197
 30
0.0
 11
0.416392
 21
0.717627
 31
0.0
 12
0.439616
 22
0.688197
 32
0.0
 13
0.410199
 23
0.668061
 33
0.0
  0
SOLID
  5
22E
  8
0
 62
     7
 10
0.452003
 20
0.671159
 30
0.0
 11
0.439616
 21
0.688197
 31
0.0
 12
0.452003
 22
0.671159
 32
0.0
 13
0.410199
 23
0.668061
 33
0.0
  0
SOLID
  5
22F
  8
0
 62
     7
 10
0.452003
 20
0.671159
 30
0.0
 11
0.410199
 21
0.668061
 31
0.0
 12
0.452003
 22
0.671159
 32
0.0
 13
0.425682
 23
0.64018
 33
0.0
  0
SOLID
  5
230
  8
0
 62
     7
 10
0.470582
 20
0.652571
 30
0.0
 11
0.452003
 21
0.671159
 31
0.0
 12
0.470582
 22
0.652571
 32
0.0
 13
0.425682
 23
0.64018
 33
0.0
  0
SOLID
  5
231
  8
0
 62
     7
 10
0.470582
 20
0.652571
 30
0.0
 11
0.425682
 21
0.64018
 31
0.0
 12
0.470582
 22
0.652571
 32
0.0
 13
0.425682
 23
0.632435
 33
0.0
  0
SOLID
  5
232
  8
0
 62
     7
 10
0.425682
 20
0.632435
 30
0.0
 11
0.447358
 21
0.589064
 31
0.0
 12
0.425682
 22
0.632435
 32
0.0
 13
0.479872
 23
0.626239
 33
0.0
  0
SOLID
  5
233
  8
0
 62
     7
 10
0.425682
 20
0.632435
 30
0.0
 11
0.479872
 21
0.626239
 31
0.0
 12
0.425682
 22
0.632435
 32
0.0
 13
0.470582
 23
0.652571
 33
0.0
  0
SOLID
  5
234
  8
0
 62
     7
 10
0.383814
 20
0.968812
 30
0.0
 11
0.377618
 21
0.981211
 31
0.0
 12
0.383814
 22
0.968812
 32
0.0
 13
0.366774
 23
0.981211
 33
0.0
  0
SOLID
  5
235
  8
0
 62
     7
 10
0.33734
 20
0.990509
 30
0.0
 11
0.329594
 21
0.990509
 31
0.0
 12
0.33734
 22
0.990509
 32
0.0
 13
0.315652
 23
0.98896
 33
0.0
  0
SOLID
  5
236
  8
0
 62
     7
 10
0.258334
 20
0.981211
 30
0.0
 11
0.252137
 21
0.975011
 31
0.0
 12
0.258334
 22
0.981211
 32
0.0
 13
0.255235
 23
0.957964
 33
0.0
  0
SOLID
  5
237
  8
0
 62
     7
 10
0.383814
 20
0.944016
 30
0.0
 11
0.386913
 21
0.957964
 31
0.0
 12
0.383814
 22
0.944016
 32
0.0
 13
0.383814
 23
0.968812
 33
0.0
  0
SOLID
  5
238
  8
0
 62
     7
 10
0.286218
 20
0.953314
 30
0.0
 11
0.30171
 21
0.956414
 31
0.0
 12
0.286218
 22
0.953314
 32
0.0
 13
0.312554
 23
0.959514
 33
0.0
  0
SOLID
  5
239
  8
0
 62
     7
 10
0.258334
 20
0.981211
 30
0.0
 11
0.255235
 21
0.957964
 31
0.0
 12
0.258334
 22
0.981211
 32
0.0
 13
0.261432
 23
0.953314
 33
0.0
  0
SOLID
  5
23A
  8
0
 62
     7
 10
0.366774
 20
0.942466
 30
0.0
 11
0.383814
 21
0.944016
 31
0.0
 12
0.366774
 22
0.942466
 32
0.0
 13
0.383814
 23
0.968812
 33
0.0
  0
SOLID
  5
23B
  8
0
 62
     7
 10
0.315652
 20
0.98896
 30
0.0
 11
0.30016
 21
0.98896
 31
0.0
 12
0.315652
 22
0.98896
 32
0.0
 13
0.281571
 23
0.98741
 33
0.0
  0
SOLID
  5
23C
  8
0
 62
     7
 10
0.352831
 20
0.951765
 30
0.0
 11
0.366774
 21
0.942466
 31
0.0
 12
0.352831
 22
0.951765
 32
0.0
 13
0.383814
 23
0.968812
 33
0.0
  0
SOLID
  5
23D
  8
0
 62
     7
 10
0.352831
 20
0.951765
 30
0.0
 11
0.383814
 21
0.968812
 31
0.0
 12
0.352831
 22
0.951765
 32
0.0
 13
0.366774
 23
0.981211
 33
0.0
  0
SOLID
  5
23E
  8
0
 62
     7
 10
0.341987
 20
0.957964
 30
0.0
 11
0.352831
 21
0.951765
 31
0.0
 12
0.341987
 22
0.957964
 32
0.0
 13
0.366774
 23
0.981211
 33
0.0
  0
SOLID
  5
23F
  8
0
 62
     7
 10
0.341987
 20
0.957964
 30
0.0
 11
0.366774
 21
0.981211
 31
0.0
 12
0.341987
 22
0.957964
 32
0.0
 13
0.33734
 23
0.990509
 33
0.0
  0
SOLID
  5
240
  8
0
 62
     7
 10
0.258334
 20
0.981211
 30
0.0
 11
0.261432
 21
0.953314
 31
0.0
 12
0.258334
 22
0.981211
 32
0.0
 13
0.286218
 23
0.953314
 33
0.0
  0
SOLID
  5
241
  8
0
 62
     7
 10
0.281571
 20
0.98741
 30
0.0
 11
0.258334
 21
0.981211
 31
0.0
 12
0.281571
 22
0.98741
 32
0.0
 13
0.286218
 23
0.953314
 33
0.0
  0
SOLID
  5
242
  8
0
 62
     7
 10
0.312554
 20
0.959514
 30
0.0
 11
0.341987
 21
0.957964
 31
0.0
 12
0.312554
 22
0.959514
 32
0.0
 13
0.33734
 23
0.990509
 33
0.0
  0
SOLID
  5
243
  8
0
 62
     7
 10
0.312554
 20
0.959514
 30
0.0
 11
0.33734
 21
0.990509
 31
0.0
 12
0.312554
 22
0.959514
 32
0.0
 13
0.315652
 23
0.98896
 33
0.0
  0
SOLID
  5
244
  8
0
 62
     7
 10
0.312554
 20
0.959514
 30
0.0
 11
0.315652
 21
0.98896
 31
0.0
 12
0.312554
 22
0.959514
 32
0.0
 13
0.281571
 23
0.98741
 33
0.0
  0
SOLID
  5
245
  8
0
 62
     7
 10
0.312554
 20
0.959514
 30
0.0
 11
0.281571
 21
0.98741
 31
0.0
 12
0.312554
 22
0.959514
 32
0.0
 13
0.286218
 23
0.953314
 33
0.0
  0
SOLID
  5
246
  8
0
 62
     7
 10
0.183975
 20
0.733244
 30
0.0
 11
0.177778
 21
0.722395
 31
0.0
 12
0.183975
 22
0.733244
 32
0.0
 13
0.179327
 23
0.714646
 33
0.0
  0
SOLID
  5
247
  8
0
 62
     7
 10
0.255235
 20
0.75804
 30
0.0
 11
0.270727
 21
0.75804
 31
0.0
 12
0.255235
 22
0.75804
 32
0.0
 13
0.272276
 23
0.771989
 33
0.0
  0
SOLID
  5
248
  8
0
 62
     7
 10
0.211859
 20
0.771989
 30
0.0
 11
0.208761
 21
0.76269
 31
0.0
 12
0.211859
 22
0.771989
 32
0.0
 13
0.205663
 23
0.750292
 33
0.0
  0
SOLID
  5
249
  8
0
 62
     7
 10
0.24594
 20
0.789036
 30
0.0
 11
0.242842
 21
0.789036
 31
0.0
 12
0.24594
 22
0.789036
 32
0.0
 13
0.224252
 23
0.779738
 33
0.0
  0
SOLID
  5
24A
  8
0
 62
     7
 10
0.183975
 20
0.661953
 30
0.0
 11
0.199466
 21
0.649555
 31
0.0
 12
0.183975
 22
0.661953
 32
0.0
 13
0.207212
 23
0.652655
 33
0.0
  0
SOLID
  5
24B
  8
0
 62
     7
 10
0.205663
 20
0.750292
 30
0.0
 11
0.196368
 21
0.744092
 31
0.0
 12
0.205663
 22
0.750292
 32
0.0
 13
0.183975
 23
0.733244
 33
0.0
  0
SOLID
  5
24C
  8
0
 62
     7
 10
0.214958
 20
0.671252
 30
0.0
 11
0.216507
 21
0.6883
 31
0.0
 12
0.214958
 22
0.671252
 32
0.0
 13
0.216507
 23
0.702248
 33
0.0
  0
SOLID
  5
24D
  8
0
 62
     7
 10
0.183975
 20
0.661953
 30
0.0
 11
0.207212
 21
0.652655
 31
0.0
 12
0.183975
 22
0.661953
 32
0.0
 13
0.214958
 23
0.671252
 33
0.0
  0
SOLID
  5
24E
  8
0
 62
     7
 10
0.255235
 20
0.75804
 30
0.0
 11
0.272276
 21
0.771989
 31
0.0
 12
0.255235
 22
0.75804
 32
0.0
 13
0.272276
 23
0.787487
 33
0.0
  0
SOLID
  5
24F
  8
0
 62
     7
 10
0.224252
 20
0.779738
 30
0.0
 11
0.211859
 21
0.771989
 31
0.0
 12
0.224252
 22
0.779738
 32
0.0
 13
0.205663
 23
0.750292
 33
0.0
  0
SOLID
  5
250
  8
0
 62
     7
 10
0.298611
 20
0.820032
 30
0.0
 11
0.321849
 21
0.826231
 31
0.0
 12
0.298611
 22
0.820032
 32
0.0
 13
0.329594
 23
0.844829
 33
0.0
  0
SOLID
  5
251
  8
0
 62
     7
 10
0.179327
 20
0.68985
 30
0.0
 11
0.183975
 21
0.661953
 31
0.0
 12
0.179327
 22
0.68985
 32
0.0
 13
0.214958
 23
0.671252
 33
0.0
  0
SOLID
  5
252
  8
0
 62
     7
 10
0.179327
 20
0.68985
 30
0.0
 11
0.214958
 21
0.671252
 31
0.0
 12
0.179327
 22
0.68985
 32
0.0
 13
0.216507
 23
0.702248
 33
0.0
  0
SOLID
  5
253
  8
0
 62
     7
 10
0.179327
 20
0.714646
 30
0.0
 11
0.179327
 21
0.68985
 31
0.0
 12
0.179327
 22
0.714646
 32
0.0
 13
0.216507
 23
0.702248
 33
0.0
  0
SOLID
  5
254
  8
0
 62
     7
 10
0.287767
 20
0.854128
 30
0.0
 11
0.26453
 21
0.844829
 31
0.0
 12
0.287767
 22
0.854128
 32
0.0
 13
0.252137
 23
0.83398
 33
0.0
  0
SOLID
  5
255
  8
0
 62
     7
 10
0.326496
 20
0.934717
 30
0.0
 11
0.306357
 21
0.934717
 31
0.0
 12
0.326496
 22
0.934717
 32
0.0
 13
0.304808
 23
0.899072
 33
0.0
  0
SOLID
  5
256
  8
0
 62
     7
 10
0.179327
 20
0.714646
 30
0.0
 11
0.216507
 21
0.702248
 31
0.0
 12
0.179327
 22
0.714646
 32
0.0
 13
0.221154
 23
0.723945
 33
0.0
  0
SOLID
  5
257
  8
0
 62
     7
 10
0.183975
 20
0.733244
 30
0.0
 11
0.179327
 21
0.714646
 31
0.0
 12
0.183975
 22
0.733244
 32
0.0
 13
0.221154
 23
0.723945
 33
0.0
  0
SOLID
  5
258
  8
0
 62
     7
 10
0.205663
 20
0.750292
 30
0.0
 11
0.183975
 21
0.733244
 31
0.0
 12
0.205663
 22
0.750292
 32
0.0
 13
0.221154
 23
0.723945
 33
0.0
  0
SOLID
  5
259
  8
0
 62
     7
 10
0.205663
 20
0.750292
 30
0.0
 11
0.221154
 21
0.723945
 31
0.0
 12
0.205663
 22
0.750292
 32
0.0
 13
0.230449
 23
0.739443
 33
0.0
  0
SOLID
  5
25A
  8
0
 62
     7
 10
0.205663
 20
0.750292
 30
0.0
 11
0.230449
 21
0.739443
 31
0.0
 12
0.205663
 22
0.750292
 32
0.0
 13
0.239744
 23
0.748742
 33
0.0
  0
SOLID
  5
25B
  8
0
 62
     7
 10
0.224252
 20
0.779738
 30
0.0
 11
0.205663
 21
0.750292
 31
0.0
 12
0.224252
 22
0.779738
 32
0.0
 13
0.239744
 23
0.748742
 33
0.0
  0
SOLID
  5
25C
  8
0
 62
     7
 10
0.224252
 20
0.779738
 30
0.0
 11
0.239744
 21
0.748742
 31
0.0
 12
0.224252
 22
0.779738
 32
0.0
 13
0.255235
 23
0.75804
 33
0.0
  0
SOLID
  5
25D
  8
0
 62
     7
 10
0.24594
 20
0.789036
 30
0.0
 11
0.224252
 21
0.779738
 31
0.0
 12
0.24594
 22
0.789036
 32
0.0
 13
0.255235
 23
0.75804
 33
0.0
  0
SOLID
  5
25E
  8
0
 62
     7
 10
0.24594
 20
0.789036
 30
0.0
 11
0.255235
 21
0.75804
 31
0.0
 12
0.24594
 22
0.789036
 32
0.0
 13
0.272276
 23
0.787487
 33
0.0
  0
SOLID
  5
25F
  8
0
 62
     7
 10
0.24594
 20
0.806084
 30
0.0
 11
0.24594
 21
0.789036
 31
0.0
 12
0.24594
 22
0.806084
 32
0.0
 13
0.272276
 23
0.787487
 33
0.0
  0
SOLID
  5
260
  8
0
 62
     7
 10
0.24594
 20
0.806084
 30
0.0
 11
0.272276
 21
0.787487
 31
0.0
 12
0.24594
 22
0.806084
 32
0.0
 13
0.287767
 23
0.813833
 33
0.0
  0
SOLID
  5
261
  8
0
 62
     7
 10
0.252137
 20
0.83398
 30
0.0
 11
0.24594
 21
0.806084
 31
0.0
 12
0.252137
 22
0.83398
 32
0.0
 13
0.287767
 23
0.813833
 33
0.0
  0
SOLID
  5
262
  8
0
 62
     7
 10
0.287767
 20
0.854128
 30
0.0
 11
0.252137
 21
0.83398
 31
0.0
 12
0.287767
 22
0.854128
 32
0.0
 13
0.287767
 23
0.813833
 33
0.0
  0
SOLID
  5
263
  8
0
 62
     7
 10
0.287767
 20
0.854128
 30
0.0
 11
0.287767
 21
0.813833
 31
0.0
 12
0.287767
 22
0.854128
 32
0.0
 13
0.298611
 23
0.820032
 33
0.0
  0
SOLID
  5
264
  8
0
 62
     7
 10
0.287767
 20
0.854128
 30
0.0
 11
0.298611
 21
0.820032
 31
0.0
 12
0.287767
 22
0.854128
 32
0.0
 13
0.329594
 23
0.844829
 33
0.0
  0
SOLID
  5
265
  8
0
 62
     7
 10
0.303259
 20
0.868076
 30
0.0
 11
0.287767
 21
0.854128
 31
0.0
 12
0.303259
 22
0.868076
 32
0.0
 13
0.329594
 23
0.844829
 33
0.0
  0
SOLID
  5
266
  8
0
 62
     7
 10
0.303259
 20
0.868076
 30
0.0
 11
0.329594
 21
0.844829
 31
0.0
 12
0.303259
 22
0.868076
 32
0.0
 13
0.334242
 23
0.869626
 33
0.0
  0
SOLID
  5
267
  8
0
 62
     7
 10
0.306357
 20
0.882024
 30
0.0
 11
0.303259
 21
0.868076
 31
0.0
 12
0.306357
 22
0.882024
 32
0.0
 13
0.334242
 23
0.869626
 33
0.0
  0
SOLID
  5
268
  8
0
 62
     7
 10
0.306357
 20
0.882024
 30
0.0
 11
0.334242
 21
0.869626
 31
0.0
 12
0.306357
 22
0.882024
 32
0.0
 13
0.340438
 23
0.891323
 33
0.0
  0
SOLID
  5
269
  8
0
 62
     7
 10
0.304808
 20
0.899072
 30
0.0
 11
0.306357
 21
0.882024
 31
0.0
 12
0.304808
 22
0.899072
 32
0.0
 13
0.340438
 23
0.891323
 33
0.0
  0
SOLID
  5
26A
  8
0
 62
     7
 10
0.304808
 20
0.899072
 30
0.0
 11
0.340438
 21
0.891323
 31
0.0
 12
0.304808
 22
0.899072
 32
0.0
 13
0.346635
 23
0.916119
 33
0.0
  0
SOLID
  5
26B
  8
0
 62
     7
 10
0.304808
 20
0.899072
 30
0.0
 11
0.346635
 21
0.916119
 31
0.0
 12
0.304808
 22
0.899072
 32
0.0
 13
0.326496
 23
0.934717
 33
0.0
  0
SOLID
  5
26C
  8
0
 62
     7
 10
0.201015
 20
0.806084
 30
0.0
 11
0.213408
 21
0.812283
 31
0.0
 12
0.201015
 22
0.806084
 32
0.0
 13
0.214958
 23
0.824682
 33
0.0
  0
SOLID
  5
26D
  8
0
 62
     7
 10
0.152992
 20
0.778188
 30
0.0
 11
0.152992
 21
0.76269
 31
0.0
 12
0.152992
 22
0.778188
 32
0.0
 13
0.171582
 23
0.76269
 33
0.0
  0
SOLID
  5
26E
  8
0
 62
     7
 10
0.152992
 20
0.778188
 30
0.0
 11
0.171582
 21
0.76269
 31
0.0
 12
0.152992
 22
0.778188
 32
0.0
 13
0.176229
 23
0.773538
 33
0.0
  0
SOLID
  5
26F
  8
0
 62
     7
 10
0.165385
 20
0.83863
 30
0.0
 11
0.162287
 21
0.83708
 31
0.0
 12
0.165385
 22
0.83863
 32
0.0
 13
0.148344
 23
0.820032
 33
0.0
  0
SOLID
  5
270
  8
0
 62
     7
 10
0.151443
 20
0.792136
 30
0.0
 11
0.152992
 21
0.778188
 31
0.0
 12
0.151443
 22
0.792136
 32
0.0
 13
0.176229
 23
0.773538
 33
0.0
  0
SOLID
  5
271
  8
0
 62
     7
 10
0.19327
 20
0.852578
 30
0.0
 11
0.179327
 21
0.846379
 31
0.0
 12
0.19327
 22
0.852578
 32
0.0
 13
0.165385
 23
0.83863
 33
0.0
  0
SOLID
  5
272
  8
0
 62
     7
 10
0.224252
 20
0.905271
 30
0.0
 11
0.205663
 21
0.902171
 31
0.0
 12
0.224252
 22
0.905271
 32
0.0
 13
0.197917
 23
0.886673
 33
0.0
  0
SOLID
  5
273
  8
0
 62
     7
 10
0.151443
 20
0.792136
 30
0.0
 11
0.176229
 21
0.773538
 31
0.0
 12
0.151443
 22
0.792136
 32
0.0
 13
0.183975
 23
0.793686
 33
0.0
  0
SOLID
  5
274
  8
0
 62
     7
 10
0.275374
 20
0.889773
 30
0.0
 11
0.280022
 21
0.91147
 31
0.0
 12
0.275374
 22
0.889773
 32
0.0
 13
0.267628
 23
0.922319
 33
0.0
  0
SOLID
  5
275
  8
0
 62
     7
 10
0.242842
 20
0.877375
 30
0.0
 11
0.261432
 21
0.880474
 31
0.0
 12
0.242842
 22
0.877375
 32
0.0
 13
0.275374
 23
0.889773
 33
0.0
  0
SOLID
  5
276
  8
0
 62
     7
 10
0.267628
 20
0.922319
 30
0.0
 11
0.242842
 21
0.917669
 31
0.0
 12
0.267628
 22
0.922319
 32
0.0
 13
0.233547
 23
0.90992
 33
0.0
  0
SOLID
  5
277
  8
0
 62
     7
 10
0.201015
 20
0.806084
 30
0.0
 11
0.214958
 21
0.824682
 31
0.0
 12
0.201015
 22
0.806084
 32
0.0
 13
0.221154
 23
0.843279
 33
0.0
  0
SOLID
  5
278
  8
0
 62
     7
 10
0.233547
 20
0.90992
 30
0.0
 11
0.224252
 21
0.905271
 31
0.0
 12
0.233547
 22
0.90992
 32
0.0
 13
0.197917
 23
0.886673
 33
0.0
  0
SOLID
  5
279
  8
0
 62
     7
 10
0.148344
 20
0.820032
 30
0.0
 11
0.151443
 21
0.792136
 31
0.0
 12
0.148344
 22
0.820032
 32
0.0
 13
0.183975
 23
0.793686
 33
0.0
  0
SOLID
  5
27A
  8
0
 62
     7
 10
0.275374
 20
0.889773
 30
0.0
 11
0.267628
 21
0.922319
 31
0.0
 12
0.275374
 22
0.889773
 32
0.0
 13
0.233547
 23
0.90992
 33
0.0
  0
SOLID
  5
27B
  8
0
 62
     7
 10
0.242842
 20
0.877375
 30
0.0
 11
0.275374
 21
0.889773
 31
0.0
 12
0.242842
 22
0.877375
 32
0.0
 13
0.233547
 23
0.90992
 33
0.0
  0
SOLID
  5
27C
  8
0
 62
     7
 10
0.233547
 20
0.868076
 30
0.0
 11
0.242842
 21
0.877375
 31
0.0
 12
0.233547
 22
0.868076
 32
0.0
 13
0.233547
 23
0.90992
 33
0.0
  0
SOLID
  5
27D
  8
0
 62
     7
 10
0.233547
 20
0.868076
 30
0.0
 11
0.233547
 21
0.90992
 31
0.0
 12
0.233547
 22
0.868076
 32
0.0
 13
0.197917
 23
0.886673
 33
0.0
  0
SOLID
  5
27E
  8
0
 62
     7
 10
0.233547
 20
0.868076
 30
0.0
 11
0.197917
 21
0.886673
 31
0.0
 12
0.233547
 22
0.868076
 32
0.0
 13
0.199466
 23
0.864976
 33
0.0
  0
SOLID
  5
27F
  8
0
 62
     7
 10
0.221154
 20
0.843279
 30
0.0
 11
0.233547
 21
0.868076
 31
0.0
 12
0.221154
 22
0.843279
 32
0.0
 13
0.199466
 23
0.864976
 33
0.0
  0
SOLID
  5
280
  8
0
 62
     7
 10
0.221154
 20
0.843279
 30
0.0
 11
0.199466
 21
0.864976
 31
0.0
 12
0.221154
 22
0.843279
 32
0.0
 13
0.19327
 23
0.852578
 33
0.0
  0
SOLID
  5
281
  8
0
 62
     7
 10
0.201015
 20
0.806084
 30
0.0
 11
0.221154
 21
0.843279
 31
0.0
 12
0.201015
 22
0.806084
 32
0.0
 13
0.19327
 23
0.852578
 33
0.0
  0
SOLID
  5
282
  8
0
 62
     7
 10
0.201015
 20
0.806084
 30
0.0
 11
0.19327
 21
0.852578
 31
0.0
 12
0.201015
 22
0.806084
 32
0.0
 13
0.165385
 23
0.83863
 33
0.0
  0
SOLID
  5
283
  8
0
 62
     7
 10
0.183975
 20
0.793686
 30
0.0
 11
0.201015
 21
0.806084
 31
0.0
 12
0.183975
 22
0.793686
 32
0.0
 13
0.165385
 23
0.83863
 33
0.0
  0
SOLID
  5
284
  8
0
 62
     7
 10
0.148344
 20
0.820032
 30
0.0
 11
0.183975
 21
0.793686
 31
0.0
 12
0.148344
 22
0.820032
 32
0.0
 13
0.165385
 23
0.83863
 33
0.0
  0
SOLID
  5
285
  8
0
 62
     7
 10
0.105184
 20
0.737763
 30
0.0
 11
0.120667
 21
0.72847
 31
0.0
 12
0.105184
 22
0.737763
 32
0.0
 13
0.129957
 23
0.74241
 33
0.0
  0
SOLID
  5
286
  8
0
 62
     7
 10
0.137698
 20
0.976301
 30
0.0
 11
0.16
 21
1.0
 31
0.0
 12
0.137698
 22
0.976301
 32
0.0
 13
0.12
 23
1.0
 33
0.0
  0
SOLID
  5
287
  8
0
 62
     7
 10
0.162471
 20
0.86013
 30
0.0
 11
0.164019
 21
0.880266
 31
0.0
 12
0.162471
 22
0.86013
 32
0.0
 13
0.139247
 23
0.884913
 33
0.0
  0
SOLID
  5
288
  8
0
 62
     7
 10
0.131505
 20
0.857032
 30
0.0
 11
0.162471
 21
0.86013
 31
0.0
 12
0.131505
 22
0.857032
 32
0.0
 13
0.139247
 23
0.884913
 33
0.0
  0
SOLID
  5
289
  8
0
 62
     7
 10
0.131505
 20
0.857032
 30
0.0
 11
0.139247
 21
0.884913
 31
0.0
 12
0.131505
 22
0.857032
 32
0.0
 13
0.12686
 23
0.884913
 33
0.0
  0
SOLID
  5
28A
  8
0
 62
     7
 10
0.097443
 20
0.754802
 30
0.0
 11
0.105184
 21
0.737763
 31
0.0
 12
0.097443
 22
0.754802
 32
0.0
 13
0.129957
 23
0.74241
 33
0.0
  0
SOLID
  5
28B
  8
0
 62
     7
 10
0.097443
 20
0.754802
 30
0.0
 11
0.129957
 21
0.74241
 31
0.0
 12
0.097443
 22
0.754802
 32
0.0
 13
0.123764
 23
0.767193
 33
0.0
  0
SOLID
  5
28C
  8
0
 62
     7
 10
0.097443
 20
0.78733
 30
0.0
 11
0.097443
 21
0.754802
 31
0.0
 12
0.097443
 22
0.78733
 32
0.0
 13
0.123764
 23
0.767193
 33
0.0
  0
SOLID
  5
28D
  8
0
 62
     7
 10
0.097443
 20
0.78733
 30
0.0
 11
0.123764
 21
0.767193
 31
0.0
 12
0.097443
 22
0.78733
 32
0.0
 13
0.12686
 23
0.804368
 33
0.0
  0
SOLID
  5
28E
  8
0
 62
     7
 10
0.091249
 20
0.818309
 30
0.0
 11
0.097443
 21
0.78733
 31
0.0
 12
0.091249
 22
0.818309
 32
0.0
 13
0.12686
 23
0.804368
 33
0.0
  0
SOLID
  5
28F
  8
0
 62
     7
 10
0.091249
 20
0.818309
 30
0.0
 11
0.12686
 21
0.804368
 31
0.0
 12
0.091249
 22
0.818309
 32
0.0
 13
0.114474
 23
0.829151
 33
0.0
  0
SOLID
  5
290
  8
0
 62
     7
 10
0.086604
 20
0.84619
 30
0.0
 11
0.091249
 21
0.818309
 31
0.0
 12
0.086604
 22
0.84619
 32
0.0
 13
0.114474
 23
0.829151
 33
0.0
  0
SOLID
  5
291
  8
0
 62
     7
 10
0.173309
 20
0.962361
 30
0.0
 11
0.14544
 21
0.965458
 31
0.0
 12
0.173309
 22
0.962361
 32
0.0
 13
0.131505
 23
0.954616
 33
0.0
  0
SOLID
  5
292
  8
0
 62
     7
 10
0.137698
 20
0.976301
 30
0.0
 11
0.12
 21
1.0
 31
0.0
 12
0.137698
 22
0.976301
 32
0.0
 13
0.098991
 23
0.956165
 33
0.0
  0
SOLID
  5
293
  8
0
 62
     7
 10
0.131505
 20
0.954616
 30
0.0
 11
0.137698
 21
0.976301
 31
0.0
 12
0.131505
 22
0.954616
 32
0.0
 13
0.098991
 23
0.956165
 33
0.0
  0
SOLID
  5
294
  8
0
 62
     7
 10
0.131505
 20
0.954616
 30
0.0
 11
0.098991
 21
0.956165
 31
0.0
 12
0.131505
 22
0.954616
 32
0.0
 13
0.108281
 23
0.923637
 33
0.0
  0
SOLID
  5
295
  8
0
 62
     7
 10
0.196534
 20
0.929833
 30
0.0
 11
0.235241
 21
0.946871
 31
0.0
 12
0.196534
 22
0.929833
 32
0.0
 13
0.224403
 23
0.965458
 33
0.0
  0
SOLID
  5
296
  8
0
 62
     7
 10
0.196534
 20
0.929833
 30
0.0
 11
0.224403
 21
0.965458
 31
0.0
 12
0.196534
 22
0.929833
 32
0.0
 13
0.193437
 23
0.970105
 33
0.0
  0
SOLID
  5
297
  8
0
 62
     7
 10
0.196534
 20
0.929833
 30
0.0
 11
0.193437
 21
0.970105
 31
0.0
 12
0.196534
 22
0.929833
 32
0.0
 13
0.173309
 23
0.962361
 33
0.0
  0
SOLID
  5
298
  8
0
 62
     7
 10
0.15473
 20
0.936029
 30
0.0
 11
0.196534
 21
0.929833
 31
0.0
 12
0.15473
 22
0.936029
 32
0.0
 13
0.173309
 23
0.962361
 33
0.0
  0
SOLID
  5
299
  8
0
 62
     7
 10
0.15473
 20
0.936029
 30
0.0
 11
0.173309
 21
0.962361
 31
0.0
 12
0.15473
 22
0.936029
 32
0.0
 13
0.131505
 23
0.954616
 33
0.0
  0
SOLID
  5
29A
  8
0
 62
     7
 10
0.131505
 20
0.914343
 30
0.0
 11
0.15473
 21
0.936029
 31
0.0
 12
0.131505
 22
0.914343
 32
0.0
 13
0.131505
 23
0.954616
 33
0.0
  0
SOLID
  5
29B
  8
0
 62
     7
 10
0.131505
 20
0.914343
 30
0.0
 11
0.131505
 21
0.954616
 31
0.0
 12
0.131505
 22
0.914343
 32
0.0
 13
0.108281
 23
0.923637
 33
0.0
  0
SOLID
  5
29C
  8
0
 62
     7
 10
0.12686
 20
0.884913
 30
0.0
 11
0.131505
 21
0.914343
 31
0.0
 12
0.12686
 22
0.884913
 32
0.0
 13
0.108281
 23
0.923637
 33
0.0
  0
SOLID
  5
29D
  8
0
 62
     7
 10
0.12686
 20
0.884913
 30
0.0
 11
0.108281
 21
0.923637
 31
0.0
 12
0.12686
 22
0.884913
 32
0.0
 13
0.095894
 23
0.881815
 33
0.0
  0
SOLID
  5
29E
  8
0
 62
     7
 10
0.131505
 20
0.857032
 30
0.0
 11
0.12686
 21
0.884913
 31
0.0
 12
0.131505
 22
0.857032
 32
0.0
 13
0.095894
 23
0.881815
 33
0.0
  0
SOLID
  5
29F
  8
0
 62
     7
 10
0.086604
 20
0.84619
 30
0.0
 11
0.114474
 21
0.829151
 31
0.0
 12
0.086604
 22
0.84619
 32
0.0
 13
0.131505
 23
0.857032
 33
0.0
  0
SOLID
  5
2A0
  8
0
 62
     7
 10
0.086604
 20
0.84619
 30
0.0
 11
0.131505
 21
0.857032
 31
0.0
 12
0.086604
 22
0.84619
 32
0.0
 13
0.095894
 23
0.881815
 33
0.0
  0
SOLID
  5
2A1
  8
0
 62
     7
 10
0.050748
 20
0.888223
 30
0.0
 11
0.056945
 21
0.894422
 31
0.0
 12
0.050748
 22
0.888223
 32
0.0
 13
0.061592
 23
0.900621
 33
0.0
  0
SOLID
  5
2A2
  8
0
 62
     7
 10
0.060043
 20
0.993609
 30
0.0
 11
0.049199
 21
0.992059
 31
0.0
 12
0.060043
 22
0.993609
 32
0.0
 13
0.041454
 23
0.98741
 33
0.0
  0
SOLID
  5
2A3
  8
0
 62
     7
 10
0.075535
 20
0.976561
 30
0.0
 11
0.075535
 21
0.98431
 31
0.0
 12
0.075535
 22
0.976561
 32
0.0
 13
0.060043
 23
0.993609
 33
0.0
  0
SOLID
  5
2A4
  8
0
 62
     7
 10
0.060043
 20
0.674352
 30
0.0
 11
0.070887
 21
0.671252
 31
0.0
 12
0.060043
 22
0.674352
 32
0.0
 13
0.08328
 23
0.674352
 33
0.0
  0
SOLID
  5
2A5
  8
0
 62
     7
 10
0.016667
 20
0.84018
 30
0.0
 11
0.019766
 21
0.827781
 31
0.0
 12
0.016667
 22
0.84018
 32
0.0
 13
0.025962
 23
0.818482
 33
0.0
  0
SOLID
  5
2A6
  8
0
 62
     7
 10
0.08328
 20
0.692949
 30
0.0
 11
0.077084
 21
0.706897
 31
0.0
 12
0.08328
 22
0.692949
 32
0.0
 13
0.070887
 23
0.713097
 33
0.0
  0
SOLID
  5
2A7
  8
0
 62
     7
 10
0.070887
 20
0.713097
 30
0.0
 11
0.064691
 21
0.723945
 31
0.0
 12
0.070887
 22
0.713097
 32
0.0
 13
0.058494
 23
0.733244
 33
0.0
  0
SOLID
  5
2A8
  8
0
 62
     7
 10
0.019766
 20
0.880474
 30
0.0
 11
0.010471
 21
0.871175
 31
0.0
 12
0.019766
 22
0.880474
 32
0.0
 13
0.010471
 23
0.857227
 33
0.0
  0
SOLID
  5
2A9
  8
0
 62
     7
 10
0.041454
 20
0.98741
 30
0.0
 11
0.035257
 21
0.976561
 31
0.0
 12
0.041454
 22
0.98741
 32
0.0
 13
0.036806
 23
0.962613
 33
0.0
  0
SOLID
  5
2AA
  8
0
 62
     7
 10
0.058494
 20
0.75804
 30
0.0
 11
0.060043
 21
0.767339
 31
0.0
 12
0.058494
 22
0.75804
 32
0.0
 13
0.061592
 23
0.785937
 33
0.0
  0
SOLID
  5
2AB
  8
0
 62
     7
 10
0.036806
 20
0.945565
 30
0.0
 11
0.019766
 21
0.957964
 31
0.0
 12
0.036806
 22
0.945565
 32
0.0
 13
0.010471
 23
0.956414
 33
0.0
  0
SOLID
  5
2AC
  8
0
 62
     7
 10
0.060043
 20
0.674352
 30
0.0
 11
0.08328
 21
0.674352
 31
0.0
 12
0.060043
 22
0.674352
 32
0.0
 13
0.08328
 23
0.692949
 33
0.0
  0
SOLID
  5
2AD
  8
0
 62
     7
 10
0.025962
 20
0.765789
 30
0.0
 11
0.022864
 21
0.748742
 31
0.0
 12
0.025962
 22
0.765789
 32
0.0
 13
0.025962
 23
0.733244
 33
0.0
  0
SOLID
  5
2AE
  8
0
 62
     7
 10
0.033708
 20
0.694499
 30
0.0
 11
0.044552
 21
0.682101
 31
0.0
 12
0.033708
 22
0.694499
 32
0.0
 13
0.060043
 23
0.674352
 33
0.0
  0
SOLID
  5
2AF
  8
0
 62
     7
 10
0.061592
 20
0.809184
 30
0.0
 11
0.055396
 21
0.827781
 31
0.0
 12
0.061592
 22
0.809184
 32
0.0
 13
0.049199
 23
0.841729
 33
0.0
  0
SOLID
  5
2B0
  8
0
 62
     7
 10
0.041454
 20
0.98741
 30
0.0
 11
0.036806
 21
0.962613
 31
0.0
 12
0.041454
 22
0.98741
 32
0.0
 13
0.041454
 23
0.951765
 33
0.0
  0
SOLID
  5
2B1
  8
0
 62
     7
 10
0.075535
 20
0.976561
 30
0.0
 11
0.060043
 21
0.993609
 31
0.0
 12
0.075535
 22
0.976561
 32
0.0
 13
0.041454
 23
0.98741
 33
0.0
  0
SOLID
  5
2B2
  8
0
 62
     7
 10
0.010471
 20
0.956414
 30
0.0
 11
0.0
 21
0.96
 31
0.0
 12
0.010471
 22
0.956414
 32
0.0
 13
0.0
 23
0.92
 33
0.0
  0
SOLID
  5
2B3
  8
0
 62
     7
 10
0.025962
 20
0.733244
 30
0.0
 11
0.027511
 21
0.713097
 31
0.0
 12
0.025962
 22
0.733244
 32
0.0
 13
0.033708
 23
0.694499
 33
0.0
  0
SOLID
  5
2B4
  8
0
 62
     7
 10
0.060043
 20
0.674352
 30
0.0
 11
0.08328
 21
0.692949
 31
0.0
 12
0.060043
 22
0.674352
 32
0.0
 13
0.070887
 23
0.713097
 33
0.0
  0
SOLID
  5
2B5
  8
0
 62
     7
 10
0.019766
 20
0.880474
 30
0.0
 11
0.010471
 21
0.857227
 31
0.0
 12
0.019766
 22
0.880474
 32
0.0
 13
0.016667
 23
0.84018
 33
0.0
  0
SOLID
  5
2B6
  8
0
 62
     7
 10
0.033708
 20
0.694499
 30
0.0
 11
0.060043
 21
0.674352
 31
0.0
 12
0.033708
 22
0.694499
 32
0.0
 13
0.070887
 23
0.713097
 33
0.0
  0
SOLID
  5
2B7
  8
0
 62
     7
 10
0.075535
 20
0.976561
 30
0.0
 11
0.041454
 21
0.98741
 31
0.0
 12
0.075535
 22
0.976561
 32
0.0
 13
0.041454
 23
0.951765
 33
0.0
  0
SOLID
  5
2B8
  8
0
 62
     7
 10
0.070887
 20
0.956414
 30
0.0
 11
0.075535
 21
0.976561
 31
0.0
 12
0.070887
 22
0.956414
 32
0.0
 13
0.041454
 23
0.951765
 33
0.0
  0
SOLID
  5
2B9
  8
0
 62
     7
 10
0.06624
 20
0.934717
 30
0.0
 11
0.070887
 21
0.956414
 31
0.0
 12
0.06624
 22
0.934717
 32
0.0
 13
0.041454
 23
0.951765
 33
0.0
  0
SOLID
  5
2BA
  8
0
 62
     7
 10
0.06624
 20
0.934717
 30
0.0
 11
0.041454
 21
0.951765
 31
0.0
 12
0.06624
 22
0.934717
 32
0.0
 13
0.041454
 23
0.945565
 33
0.0
  0
SOLID
  5
2BB
  8
0
 62
     7
 10
0.06624
 20
0.934717
 30
0.0
 11
0.041454
 21
0.945565
 31
0.0
 12
0.06624
 22
0.934717
 32
0.0
 13
0.036806
 23
0.945565
 33
0.0
  0
SOLID
  5
2BC
  8
0
 62
     7
 10
0.010471
 20
0.956414
 30
0.0
 11
0.0
 21
0.92
 31
0.0
 12
0.010471
 22
0.956414
 32
0.0
 13
0.016667
 23
0.91457
 33
0.0
  0
SOLID
  5
2BD
  8
0
 62
     7
 10
0.036806
 20
0.945565
 30
0.0
 11
0.010471
 21
0.956414
 31
0.0
 12
0.036806
 22
0.945565
 32
0.0
 13
0.016667
 23
0.91457
 33
0.0
  0
SOLID
  5
2BE
  8
0
 62
     7
 10
0.036806
 20
0.945565
 30
0.0
 11
0.016667
 21
0.91457
 31
0.0
 12
0.036806
 22
0.945565
 32
0.0
 13
0.025962
 23
0.905271
 33
0.0
  0
SOLID
  5
2BF
  8
0
 62
     7
 10
0.033708
 20
0.694499
 30
0.0
 11
0.070887
 21
0.713097
 31
0.0
 12
0.033708
 22
0.694499
 32
0.0
 13
0.058494
 23
0.733244
 33
0.0
  0
SOLID
  5
2C0
  8
0
 62
     7
 10
0.025962
 20
0.733244
 30
0.0
 11
0.033708
 21
0.694499
 31
0.0
 12
0.025962
 22
0.733244
 32
0.0
 13
0.058494
 23
0.733244
 33
0.0
  0
SOLID
  5
2C1
  8
0
 62
     7
 10
0.025962
 20
0.733244
 30
0.0
 11
0.058494
 21
0.733244
 31
0.0
 12
0.025962
 22
0.733244
 32
0.0
 13
0.058494
 23
0.75804
 33
0.0
  0
SOLID
  5
2C2
  8
0
 62
     7
 10
0.025962
 20
0.765789
 30
0.0
 11
0.025962
 21
0.733244
 31
0.0
 12
0.025962
 22
0.765789
 32
0.0
 13
0.058494
 23
0.75804
 33
0.0
  0
SOLID
  5
2C3
  8
0
 62
     7
 10
0.025962
 20
0.765789
 30
0.0
 11
0.058494
 21
0.75804
 31
0.0
 12
0.025962
 22
0.765789
 32
0.0
 13
0.061592
 23
0.785937
 33
0.0
  0
SOLID
  5
2C4
  8
0
 62
     7
 10
0.02906
 20
0.792136
 30
0.0
 11
0.025962
 21
0.765789
 31
0.0
 12
0.02906
 22
0.792136
 32
0.0
 13
0.061592
 23
0.785937
 33
0.0
  0
SOLID
  5
2C5
  8
0
 62
     7
 10
0.02906
 20
0.792136
 30
0.0
 11
0.061592
 21
0.785937
 31
0.0
 12
0.02906
 22
0.792136
 32
0.0
 13
0.061592
 23
0.809184
 33
0.0
  0
SOLID
  5
2C6
  8
0
 62
     7
 10
0.02906
 20
0.804534
 30
0.0
 11
0.02906
 21
0.792136
 31
0.0
 12
0.02906
 22
0.804534
 32
0.0
 13
0.061592
 23
0.809184
 33
0.0
  0
SOLID
  5
2C7
  8
0
 62
     7
 10
0.025962
 20
0.818482
 30
0.0
 11
0.02906
 21
0.804534
 31
0.0
 12
0.025962
 22
0.818482
 32
0.0
 13
0.061592
 23
0.809184
 33
0.0
  0
SOLID
  5
2C8
  8
0
 62
     7
 10
0.025962
 20
0.818482
 30
0.0
 11
0.061592
 21
0.809184
 31
0.0
 12
0.025962
 22
0.818482
 32
0.0
 13
0.049199
 23
0.841729
 33
0.0
  0
SOLID
  5
2C9
  8
0
 62
     7
 10
0.016667
 20
0.84018
 30
0.0
 11
0.025962
 21
0.818482
 31
0.0
 12
0.016667
 22
0.84018
 32
0.0
 13
0.049199
 23
0.841729
 33
0.0
  0
SOLID
  5
2CA
  8
0
 62
     7
 10
0.016667
 20
0.84018
 30
0.0
 11
0.049199
 21
0.841729
 31
0.0
 12
0.016667
 22
0.84018
 32
0.0
 13
0.046101
 23
0.852578
 33
0.0
  0
SOLID
  5
2CB
  8
0
 62
     7
 10
0.019766
 20
0.880474
 30
0.0
 11
0.016667
 21
0.84018
 31
0.0
 12
0.019766
 22
0.880474
 32
0.0
 13
0.046101
 23
0.852578
 33
0.0
  0
SOLID
  5
2CC
  8
0
 62
     7
 10
0.019766
 20
0.880474
 30
0.0
 11
0.046101
 21
0.852578
 31
0.0
 12
0.019766
 22
0.880474
 32
0.0
 13
0.046101
 23
0.877375
 33
0.0
  0
SOLID
  5
2CD
  8
0
 62
     7
 10
0.022864
 20
0.889773
 30
0.0
 11
0.019766
 21
0.880474
 31
0.0
 12
0.022864
 22
0.889773
 32
0.0
 13
0.046101
 23
0.877375
 33
0.0
  0
SOLID
  5
2CE
  8
0
 62
     7
 10
0.022864
 20
0.889773
 30
0.0
 11
0.046101
 21
0.877375
 31
0.0
 12
0.022864
 22
0.889773
 32
0.0
 13
0.050748
 23
0.888223
 33
0.0
  0
SOLID
  5
2CF
  8
0
 62
     7
 10
0.025962
 20
0.905271
 30
0.0
 11
0.022864
 21
0.889773
 31
0.0
 12
0.025962
 22
0.905271
 32
0.0
 13
0.050748
 23
0.888223
 33
0.0
  0
SOLID
  5
2D0
  8
0
 62
     7
 10
0.025962
 20
0.905271
 30
0.0
 11
0.050748
 21
0.888223
 31
0.0
 12
0.025962
 22
0.905271
 32
0.0
 13
0.061592
 23
0.900621
 33
0.0
  0
SOLID
  5
2D1
  8
0
 62
     7
 10
0.025962
 20
0.905271
 30
0.0
 11
0.061592
 21
0.900621
 31
0.0
 12
0.025962
 22
0.905271
 32
0.0
 13
0.06624
 23
0.934717
 33
0.0
  0
SOLID
  5
2D2
  8
0
 62
     7
 10
0.025962
 20
0.905271
 30
0.0
 11
0.06624
 21
0.934717
 31
0.0
 12
0.025962
 22
0.905271
 32
0.0
 13
0.036806
 23
0.945565
 33
0.0
  0
SOLID
  5
2D3
  8
0
 62
     7
 10
0.140599
 20
0.651105
 30
0.0
 11
0.145246
 21
0.665053
 31
0.0
 12
0.140599
 22
0.651105
 32
0.0
 13
0.146795
 23
0.671252
 33
0.0
  0
SOLID
  5
2D4
  8
0
 62
     7
 10
0.108067
 20
0.655754
 30
0.0
 11
0.104968
 21
0.641806
 31
0.0
 12
0.108067
 22
0.655754
 32
0.0
 13
0.12046
 23
0.635607
 33
0.0
  0
SOLID
  5
2D5
  8
0
 62
     7
 10
0.12046
 20
0.635607
 30
0.0
 11
0.134402
 21
0.638706
 31
0.0
 12
0.12046
 22
0.635607
 32
0.0
 13
0.140599
 23
0.651105
 33
0.0
  0
SOLID
  5
2D6
  8
0
 62
     7
 10
0.129755
 20
0.699148
 30
0.0
 11
0.114263
 21
0.697599
 31
0.0
 12
0.129755
 22
0.699148
 32
0.0
 13
0.104968
 23
0.6852
 33
0.0
  0
SOLID
  5
2D7
  8
0
 62
     7
 10
0.104968
 20
0.6852
 30
0.0
 11
0.104968
 21
0.669702
 31
0.0
 12
0.104968
 22
0.6852
 32
0.0
 13
0.108067
 23
0.655754
 33
0.0
  0
SOLID
  5
2D8
  8
0
 62
     7
 10
0.146795
 20
0.671252
 30
0.0
 11
0.148344
 21
0.674352
 31
0.0
 12
0.146795
 22
0.671252
 32
0.0
 13
0.129755
 23
0.699148
 33
0.0
  0
SOLID
  5
2D9
  8
0
 62
     7
 10
0.108067
 20
0.655754
 30
0.0
 11
0.12046
 21
0.635607
 31
0.0
 12
0.108067
 22
0.655754
 32
0.0
 13
0.140599
 23
0.651105
 33
0.0
  0
SOLID
  5
2DA
  8
0
 62
     7
 10
0.108067
 20
0.655754
 30
0.0
 11
0.140599
 21
0.651105
 31
0.0
 12
0.108067
 22
0.655754
 32
0.0
 13
0.146795
 23
0.671252
 33
0.0
  0
SOLID
  5
2DB
  8
0
 62
     7
 10
0.146795
 20
0.671252
 30
0.0
 11
0.129755
 21
0.699148
 31
0.0
 12
0.146795
 22
0.671252
 32
0.0
 13
0.104968
 23
0.6852
 33
0.0
  0
SOLID
  5
2DC
  8
0
 62
     7
 10
0.108067
 20
0.655754
 30
0.0
 11
0.146795
 21
0.671252
 31
0.0
 12
0.108067
 22
0.655754
 32
0.0
 13
0.104968
 23
0.6852
 33
0.0
  0
SOLID
  5
2DD
  8
0
 62
     7
 10
0.01202
 20
0.544169
 30
0.0
 11
0.022864
 21
0.53952
 31
0.0
 12
0.01202
 22
0.544169
 32
0.0
 13
0.027511
 23
0.53797
 33
0.0
  0
SOLID
  5
2DE
  8
0
 62
     7
 10
0.036806
 20
0.655754
 30
0.0
 11
0.02906
 21
0.651105
 31
0.0
 12
0.036806
 22
0.655754
 32
0.0
 13
0.021315
 23
0.641806
 33
0.0
  0
SOLID
  5
2DF
  8
0
 62
     7
 10
0.008922
 20
0.553468
 30
0.0
 11
0.01202
 21
0.544169
 31
0.0
 12
0.008922
 22
0.553468
 32
0.0
 13
0.027511
 23
0.53797
 33
0.0
  0
SOLID
  5
2E0
  8
0
 62
     7
 10
0.297062
 20
0.716196
 30
0.0
 11
0.286218
 21
0.725495
 31
0.0
 12
0.297062
 22
0.716196
 32
0.0
 13
0.273825
 23
0.723945
 33
0.0
  0
SOLID
  5
2E1
  8
0
 62
     7
 10
0.060043
 20
0.648005
 30
0.0
 11
0.052298
 21
0.654204
 31
0.0
 12
0.060043
 22
0.648005
 32
0.0
 13
0.036806
 23
0.655754
 33
0.0
  0
SOLID
  5
2E2
  8
0
 62
     7
 10
0.070887
 20
0.581364
 30
0.0
 11
0.053847
 21
0.590663
 31
0.0
 12
0.070887
 22
0.581364
 32
0.0
 13
0.044552
 23
0.587563
 33
0.0
  0
SOLID
  5
2E3
  8
0
 62
     7
 10
0.021315
 20
0.61546
 30
0.0
 11
0.01202
 21
0.601511
 31
0.0
 12
0.021315
 22
0.61546
 32
0.0
 13
0.008922
 23
0.590663
 33
0.0
  0
SOLID
  5
2E4
  8
0
 62
     7
 10
0.069338
 20
0.620109
 30
0.0
 11
0.070887
 21
0.641806
 31
0.0
 12
0.069338
 22
0.620109
 32
0.0
 13
0.060043
 23
0.648005
 33
0.0
  0
SOLID
  5
2E5
  8
0
 62
     7
 10
0.190171
 20
0.61391
 30
0.0
 11
0.17468
 21
0.617009
 31
0.0
 12
0.190171
 22
0.61391
 32
0.0
 13
0.160738
 23
0.61391
 33
0.0
  0
SOLID
  5
2E6
  8
0
 62
     7
 10
0.036806
 20
0.655754
 30
0.0
 11
0.021315
 21
0.641806
 31
0.0
 12
0.036806
 22
0.655754
 32
0.0
 13
0.021315
 23
0.627858
 33
0.0
  0
SOLID
  5
2E7
  8
0
 62
     7
 10
0.273825
 20
0.723945
 30
0.0
 11
0.261432
 21
0.709997
 31
0.0
 12
0.273825
 22
0.723945
 32
0.0
 13
0.259883
 23
0.694499
 33
0.0
  0
SOLID
  5
2E8
  8
0
 62
     7
 10
0.236646
 20
0.564316
 30
0.0
 11
0.24749
 21
0.570516
 31
0.0
 12
0.236646
 22
0.564316
 32
0.0
 13
0.258334
 23
0.589113
 33
0.0
  0
SOLID
  5
2E9
  8
0
 62
     7
 10
0.098772
 20
0.542619
 30
0.0
 11
0.114263
 21
0.556567
 31
0.0
 12
0.098772
 22
0.542619
 32
0.0
 13
0.123558
 23
0.565866
 33
0.0
  0
SOLID
  5
2EA
  8
0
 62
     7
 10
0.008922
 20
0.553468
 30
0.0
 11
0.027511
 21
0.53797
 31
0.0
 12
0.008922
 22
0.553468
 32
0.0
 13
0.043003
 23
0.544169
 33
0.0
  0
SOLID
  5
2EB
  8
0
 62
     7
 10
0.253686
 20
0.652655
 30
0.0
 11
0.241293
 21
0.641806
 31
0.0
 12
0.253686
 22
0.652655
 32
0.0
 13
0.2289
 23
0.624758
 33
0.0
  0
SOLID
  5
2EC
  8
0
 62
     7
 10
0.056945
 20
0.61081
 30
0.0
 11
0.069338
 21
0.620109
 31
0.0
 12
0.056945
 22
0.61081
 32
0.0
 13
0.060043
 23
0.648005
 33
0.0
  0
SOLID
  5
2ED
  8
0
 62
     7
 10
0.122009
 20
0.606161
 30
0.0
 11
0.104968
 21
0.598412
 31
0.0
 12
0.122009
 22
0.606161
 32
0.0
 13
0.087928
 23
0.589113
 33
0.0
  0
SOLID
  5
2EE
  8
0
 62
     7
 10
0.160738
 20
0.61391
 30
0.0
 11
0.143697
 21
0.61081
 31
0.0
 12
0.160738
 22
0.61391
 32
0.0
 13
0.122009
 23
0.606161
 33
0.0
  0
SOLID
  5
2EF
  8
0
 62
     7
 10
0.303259
 20
0.696049
 30
0.0
 11
0.297062
 21
0.716196
 31
0.0
 12
0.303259
 22
0.696049
 32
0.0
 13
0.273825
 23
0.723945
 33
0.0
  0
SOLID
  5
2F0
  8
0
 62
     7
 10
0.036806
 20
0.655754
 30
0.0
 11
0.021315
 21
0.627858
 31
0.0
 12
0.036806
 22
0.655754
 32
0.0
 13
0.021315
 23
0.61546
 33
0.0
  0
SOLID
  5
2F1
  8
0
 62
     7
 10
0.303259
 20
0.696049
 30
0.0
 11
0.273825
 21
0.723945
 31
0.0
 12
0.303259
 22
0.696049
 32
0.0
 13
0.259883
 23
0.694499
 33
0.0
  0
SOLID
  5
2F2
  8
0
 62
     7
 10
0.008922
 20
0.572065
 30
0.0
 11
0.008922
 21
0.553468
 31
0.0
 12
0.008922
 22
0.572065
 32
0.0
 13
0.043003
 23
0.544169
 33
0.0
  0
SOLID
  5
2F3
  8
0
 62
     7
 10
0.269178
 20
0.607711
 30
0.0
 11
0.286218
 21
0.632507
 31
0.0
 12
0.269178
 22
0.607711
 32
0.0
 13
0.293964
 23
0.644906
 33
0.0
  0
SOLID
  5
2F4
  8
0
 62
     7
 10
0.021315
 20
0.61546
 30
0.0
 11
0.008922
 21
0.590663
 31
0.0
 12
0.021315
 22
0.61546
 32
0.0
 13
0.008922
 23
0.572065
 33
0.0
  0
SOLID
  5
2F5
  8
0
 62
     7
 10
0.081731
 20
0.544169
 30
0.0
 11
0.098772
 21
0.542619
 31
0.0
 12
0.081731
 22
0.544169
 32
0.0
 13
0.123558
 23
0.565866
 33
0.0
  0
SOLID
  5
2F6
  8
0
 62
     7
 10
0.303259
 20
0.674352
 30
0.0
 11
0.303259
 21
0.696049
 31
0.0
 12
0.303259
 22
0.674352
 32
0.0
 13
0.259883
 23
0.694499
 33
0.0
  0
SOLID
  5
2F7
  8
0
 62
     7
 10
0.303259
 20
0.674352
 30
0.0
 11
0.259883
 21
0.694499
 31
0.0
 12
0.303259
 22
0.674352
 32
0.0
 13
0.259883
 23
0.669702
 33
0.0
  0
SOLID
  5
2F8
  8
0
 62
     7
 10
0.293964
 20
0.644906
 30
0.0
 11
0.303259
 21
0.674352
 31
0.0
 12
0.293964
 22
0.644906
 32
0.0
 13
0.259883
 23
0.669702
 33
0.0
  0
SOLID
  5
2F9
  8
0
 62
     7
 10
0.293964
 20
0.644906
 30
0.0
 11
0.259883
 21
0.669702
 31
0.0
 12
0.293964
 22
0.644906
 32
0.0
 13
0.253686
 23
0.652655
 33
0.0
  0
SOLID
  5
2FA
  8
0
 62
     7
 10
0.269178
 20
0.607711
 30
0.0
 11
0.293964
 21
0.644906
 31
0.0
 12
0.269178
 22
0.607711
 32
0.0
 13
0.253686
 23
0.652655
 33
0.0
  0
SOLID
  5
2FB
  8
0
 62
     7
 10
0.269178
 20
0.607711
 30
0.0
 11
0.253686
 21
0.652655
 31
0.0
 12
0.269178
 22
0.607711
 32
0.0
 13
0.2289
 23
0.624758
 33
0.0
  0
SOLID
  5
2FC
  8
0
 62
     7
 10
0.258334
 20
0.589113
 30
0.0
 11
0.269178
 21
0.607711
 31
0.0
 12
0.258334
 22
0.589113
 32
0.0
 13
0.2289
 23
0.624758
 33
0.0
  0
SOLID
  5
2FD
  8
0
 62
     7
 10
0.258334
 20
0.589113
 30
0.0
 11
0.2289
 21
0.624758
 31
0.0
 12
0.258334
 22
0.589113
 32
0.0
 13
0.219605
 23
0.61546
 33
0.0
  0
SOLID
  5
2FE
  8
0
 62
     7
 10
0.208761
 20
0.607711
 30
0.0
 11
0.190171
 21
0.61391
 31
0.0
 12
0.208761
 22
0.607711
 32
0.0
 13
0.160738
 23
0.61391
 33
0.0
  0
SOLID
  5
2FF
  8
0
 62
     7
 10
0.056945
 20
0.61081
 30
0.0
 11
0.060043
 21
0.648005
 31
0.0
 12
0.056945
 22
0.61081
 32
0.0
 13
0.036806
 23
0.655754
 33
0.0
  0
SOLID
  5
300
  8
0
 62
     7
 10
0.056945
 20
0.61081
 30
0.0
 11
0.036806
 21
0.655754
 31
0.0
 12
0.056945
 22
0.61081
 32
0.0
 13
0.021315
 23
0.61546
 33
0.0
  0
SOLID
  5
301
  8
0
 62
     7
 10
0.044552
 20
0.587563
 30
0.0
 11
0.056945
 21
0.61081
 31
0.0
 12
0.044552
 22
0.587563
 32
0.0
 13
0.021315
 23
0.61546
 33
0.0
  0
SOLID
  5
302
  8
0
 62
     7
 10
0.044552
 20
0.587563
 30
0.0
 11
0.021315
 21
0.61546
 31
0.0
 12
0.044552
 22
0.587563
 32
0.0
 13
0.008922
 23
0.572065
 33
0.0
  0
SOLID
  5
303
  8
0
 62
     7
 10
0.044552
 20
0.587563
 30
0.0
 11
0.008922
 21
0.572065
 31
0.0
 12
0.044552
 22
0.587563
 32
0.0
 13
0.043003
 23
0.544169
 33
0.0
  0
SOLID
  5
304
  8
0
 62
     7
 10
0.070887
 20
0.581364
 30
0.0
 11
0.044552
 21
0.587563
 31
0.0
 12
0.070887
 22
0.581364
 32
0.0
 13
0.043003
 23
0.544169
 33
0.0
  0
SOLID
  5
305
  8
0
 62
     7
 10
0.070887
 20
0.581364
 30
0.0
 11
0.043003
 21
0.544169
 31
0.0
 12
0.070887
 22
0.581364
 32
0.0
 13
0.061592
 23
0.544169
 33
0.0
  0
SOLID
  5
306
  8
0
 62
     7
 10
0.070887
 20
0.581364
 30
0.0
 11
0.061592
 21
0.544169
 31
0.0
 12
0.070887
 22
0.581364
 32
0.0
 13
0.081731
 23
0.544169
 33
0.0
  0
SOLID
  5
307
  8
0
 62
     7
 10
0.087928
 20
0.589113
 30
0.0
 11
0.070887
 21
0.581364
 31
0.0
 12
0.087928
 22
0.589113
 32
0.0
 13
0.081731
 23
0.544169
 33
0.0
  0
SOLID
  5
308
  8
0
 62
     7
 10
0.087928
 20
0.589113
 30
0.0
 11
0.081731
 21
0.544169
 31
0.0
 12
0.087928
 22
0.589113
 32
0.0
 13
0.123558
 23
0.565866
 33
0.0
  0
SOLID
  5
309
  8
0
 62
     7
 10
0.122009
 20
0.606161
 30
0.0
 11
0.087928
 21
0.589113
 31
0.0
 12
0.122009
 22
0.606161
 32
0.0
 13
0.123558
 23
0.565866
 33
0.0
  0
SOLID
  5
30A
  8
0
 62
     7
 10
0.122009
 20
0.606161
 30
0.0
 11
0.123558
 21
0.565866
 31
0.0
 12
0.122009
 22
0.606161
 32
0.0
 13
0.143697
 23
0.575165
 33
0.0
  0
SOLID
  5
30B
  8
0
 62
     7
 10
0.160738
 20
0.61391
 30
0.0
 11
0.122009
 21
0.606161
 31
0.0
 12
0.160738
 22
0.61391
 32
0.0
 13
0.143697
 23
0.575165
 33
0.0
  0
SOLID
  5
30C
  8
0
 62
     7
 10
0.160738
 20
0.61391
 30
0.0
 11
0.143697
 21
0.575165
 31
0.0
 12
0.160738
 22
0.61391
 32
0.0
 13
0.170032
 23
0.575165
 33
0.0
  0
SOLID
  5
30D
  8
0
 62
     7
 10
0.208761
 20
0.607711
 30
0.0
 11
0.160738
 21
0.61391
 31
0.0
 12
0.208761
 22
0.607711
 32
0.0
 13
0.170032
 23
0.575165
 33
0.0
  0
SOLID
  5
30E
  8
0
 62
     7
 10
0.208761
 20
0.607711
 30
0.0
 11
0.170032
 21
0.575165
 31
0.0
 12
0.208761
 22
0.607711
 32
0.0
 13
0.202564
 23
0.567416
 33
0.0
  0
SOLID
  5
30F
  8
0
 62
     7
 10
0.219605
 20
0.61546
 30
0.0
 11
0.208761
 21
0.607711
 31
0.0
 12
0.219605
 22
0.61546
 32
0.0
 13
0.202564
 23
0.567416
 33
0.0
  0
SOLID
  5
310
  8
0
 62
     7
 10
0.219605
 20
0.61546
 30
0.0
 11
0.202564
 21
0.567416
 31
0.0
 12
0.219605
 22
0.61546
 32
0.0
 13
0.236646
 23
0.564316
 33
0.0
  0
SOLID
  5
311
  8
0
 62
     7
 10
0.219605
 20
0.61546
 30
0.0
 11
0.236646
 21
0.564316
 31
0.0
 12
0.219605
 22
0.61546
 32
0.0
 13
0.258334
 23
0.589113
 33
0.0
  0
SOLID
  5
312
  8
0
 62
     7
 10
0.379233
 20
0.268432
 30
0.0
 11
0.383878
 21
0.265335
 31
0.0
 12
0.379233
 22
0.268432
 32
0.0
 13
0.393167
 23
0.274628
 33
0.0
  0
SOLID
  5
313
  8
0
 62
     7
 10
0.472131
 20
0.370663
 30
0.0
 11
0.487614
 21
0.372212
 31
0.0
 12
0.472131
 22
0.370663
 32
0.0
 13
0.487614
 23
0.387701
 33
0.0
  0
SOLID
  5
314
  8
0
 62
     7
 10
0.416392
 20
0.401642
 30
0.0
 11
0.425682
 21
0.395446
 31
0.0
 12
0.416392
 22
0.401642
 32
0.0
 13
0.43652
 23
0.38925
 33
0.0
  0
SOLID
  5
315
  8
0
 62
     7
 10
0.376136
 20
0.627788
 30
0.0
 11
0.368395
 21
0.638631
 31
0.0
 12
0.376136
 22
0.627788
 32
0.0
 13
0.357557
 23
0.643278
 33
0.0
  0
SOLID
  5
316
  8
0
 62
     7
 10
0.56348
 20
0.383055
 30
0.0
 11
0.580511
 21
0.37531
 31
0.0
 12
0.56348
 22
0.383055
 32
0.0
 13
0.583608
 23
0.396995
 33
0.0
  0
SOLID
  5
317
  8
0
 62
     7
 10
0.571222
 20
0.440366
 30
0.0
 11
0.558835
 21
0.460502
 31
0.0
 12
0.571222
 22
0.440366
 32
0.0
 13
0.557287
 23
0.462051
 33
0.0
  0
SOLID
  5
318
  8
0
 62
     7
 10
0.379233
 20
0.268432
 30
0.0
 11
0.393167
 21
0.274628
 31
0.0
 12
0.379233
 22
0.268432
 32
0.0
 13
0.399361
 23
0.285471
 33
0.0
  0
SOLID
  5
319
  8
0
 62
     7
 10
0.083508
 20
0.266884
 30
0.0
 11
0.098991
 21
0.268432
 31
0.0
 12
0.083508
 22
0.266884
 32
0.0
 13
0.108281
 23
0.276177
 33
0.0
  0
SOLID
  5
31A
  8
0
 62
     7
 10
0.139247
 20
0.348978
 30
0.0
 11
0.13615
 21
0.362918
 31
0.0
 12
0.139247
 22
0.348978
 32
0.0
 13
0.129957
 23
0.373761
 33
0.0
  0
SOLID
  5
31B
  8
0
 62
     7
 10
0.479872
 20
0.401642
 30
0.0
 11
0.470582
 21
0.415582
 31
0.0
 12
0.479872
 22
0.401642
 32
0.0
 13
0.462841
 23
0.424876
 33
0.0
  0
SOLID
  5
31C
  8
0
 62
     7
 10
0.139247
 20
0.469796
 30
0.0
 11
0.151633
 21
0.47754
 31
0.0
 12
0.139247
 22
0.469796
 32
0.0
 13
0.164019
 23
0.486834
 33
0.0
  0
SOLID
  5
31D
  8
0
 62
     7
 10
0.349815
 20
0.485285
 30
0.0
 11
0.343622
 21
0.494579
 31
0.0
 12
0.349815
 22
0.485285
 32
0.0
 13
0.329687
 23
0.510068
 33
0.0
  0
SOLID
  5
31E
  8
0
 62
     7
 10
0.472131
 20
0.370663
 30
0.0
 11
0.487614
 21
0.387701
 31
0.0
 12
0.472131
 22
0.370663
 32
0.0
 13
0.479872
 23
0.401642
 33
0.0
  0
SOLID
  5
31F
  8
0
 62
     7
 10
0.078863
 20
0.324195
 30
0.0
 11
0.074218
 21
0.313352
 31
0.0
 12
0.078863
 22
0.324195
 32
0.0
 13
0.071122
 23
0.293216
 33
0.0
  0
SOLID
  5
320
  8
0
 62
     7
 10
0.390071
 20
0.348978
 30
0.0
 11
0.386974
 21
0.366016
 31
0.0
 12
0.390071
 22
0.348978
 32
0.0
 13
0.380781
 23
0.379957
 33
0.0
  0
SOLID
  5
321
  8
0
 62
     7
 10
0.139247
 20
0.400093
 30
0.0
 11
0.140795
 21
0.421778
 31
0.0
 12
0.139247
 22
0.400093
 32
0.0
 13
0.13615
 23
0.432621
 33
0.0
  0
SOLID
  5
322
  8
0
 62
     7
 10
0.232144
 20
0.483736
 30
0.0
 11
0.250724
 21
0.480638
 31
0.0
 12
0.232144
 22
0.483736
 32
0.0
 13
0.266207
 23
0.483736
 33
0.0
  0
SOLID
  5
323
  8
0
 62
     7
 10
0.338977
 20
0.568928
 30
0.0
 11
0.351363
 21
0.58132
 31
0.0
 12
0.338977
 22
0.568928
 32
0.0
 13
0.35446
 23
0.599907
 33
0.0
  0
SOLID
  5
324
  8
0
 62
     7
 10
0.100539
 20
0.410936
 30
0.0
 11
0.092798
 21
0.390799
 31
0.0
 12
0.100539
 22
0.410936
 32
0.0
 13
0.092798
 23
0.376859
 33
0.0
  0
SOLID
  5
325
  8
0
 62
     7
 10
0.455099
 20
0.376859
 30
0.0
 11
0.472131
 21
0.370663
 31
0.0
 12
0.455099
 22
0.376859
 32
0.0
 13
0.479872
 23
0.401642
 33
0.0
  0
SOLID
  5
326
  8
0
 62
     7
 10
0.35446
 20
0.599907
 30
0.0
 11
0.368395
 21
0.606103
 31
0.0
 12
0.35446
 22
0.599907
 32
0.0
 13
0.376136
 23
0.627788
 33
0.0
  0
SOLID
  5
327
  8
0
 62
     7
 10
0.36375
 20
0.28702
 30
0.0
 11
0.379233
 21
0.268432
 31
0.0
 12
0.36375
 22
0.28702
 32
0.0
 13
0.399361
 23
0.285471
 33
0.0
  0
SOLID
  5
328
  8
0
 62
     7
 10
0.411747
 20
0.417131
 30
0.0
 11
0.416392
 21
0.401642
 31
0.0
 12
0.411747
 22
0.417131
 32
0.0
 13
0.43652
 23
0.38925
 33
0.0
  0
SOLID
  5
329
  8
0
 62
     7
 10
0.13615
 20
0.432621
 30
0.0
 11
0.139247
 21
0.449659
 31
0.0
 12
0.13615
 22
0.432621
 32
0.0
 13
0.139247
 23
0.469796
 33
0.0
  0
SOLID
  5
32A
  8
0
 62
     7
 10
0.36375
 20
0.28702
 30
0.0
 11
0.399361
 21
0.285471
 31
0.0
 12
0.36375
 22
0.28702
 32
0.0
 13
0.397812
 23
0.302509
 33
0.0
  0
SOLID
  5
32B
  8
0
 62
     7
 10
0.224403
 20
0.527107
 30
0.0
 11
0.205823
 21
0.537949
 31
0.0
 12
0.224403
 22
0.527107
 32
0.0
 13
0.19034
 23
0.542596
 33
0.0
  0
SOLID
  5
32C
  8
0
 62
     7
 10
0.0
 20
0.48
 30
0.0
 11
0.0
 21
0.44
 31
0.0
 12
0.0
 22
0.48
 32
0.0
 13
0.027769
 23
0.454306
 33
0.0
  0
SOLID
  5
32D
  8
0
 62
     7
 10
0.0
 20
0.48
 30
0.0
 11
0.027769
 21
0.454306
 31
0.0
 12
0.0
 22
0.48
 32
0.0
 13
0.033962
 23
0.4636
 33
0.0
  0
SOLID
  5
32E
  8
0
 62
     7
 10
0.376136
 20
0.627788
 30
0.0
 11
0.357557
 21
0.643278
 31
0.0
 12
0.376136
 22
0.627788
 32
0.0
 13
0.337429
 23
0.627788
 33
0.0
  0
SOLID
  5
32F
  8
0
 62
     7
 10
0.35446
 20
0.599907
 30
0.0
 11
0.376136
 21
0.627788
 31
0.0
 12
0.35446
 22
0.599907
 32
0.0
 13
0.337429
 23
0.627788
 33
0.0
  0
SOLID
  5
330
  8
0
 62
     7
 10
0.35446
 20
0.599907
 30
0.0
 11
0.337429
 21
0.627788
 31
0.0
 12
0.35446
 22
0.599907
 32
0.0
 13
0.325042
 23
0.607652
 33
0.0
  0
SOLID
  5
331
  8
0
 62
     7
 10
0.033962
 20
0.4636
 30
0.0
 11
0.057187
 21
0.462051
 31
0.0
 12
0.033962
 22
0.4636
 32
0.0
 13
0.07267
 23
0.462051
 33
0.0
  0
SOLID
  5
332
  8
0
 62
     7
 10
0.56348
 20
0.383055
 30
0.0
 11
0.583608
 21
0.396995
 31
0.0
 12
0.56348
 22
0.383055
 32
0.0
 13
0.577415
 23
0.420229
 33
0.0
  0
SOLID
  5
333
  8
0
 62
     7
 10
0.546449
 20
0.412485
 30
0.0
 11
0.56348
 21
0.383055
 31
0.0
 12
0.546449
 22
0.412485
 32
0.0
 13
0.577415
 23
0.420229
 33
0.0
  0
SOLID
  5
334
  8
0
 62
     7
 10
0.540256
 20
0.421778
 30
0.0
 11
0.546449
 21
0.412485
 31
0.0
 12
0.540256
 22
0.421778
 32
0.0
 13
0.577415
 23
0.420229
 33
0.0
  0
SOLID
  5
335
  8
0
 62
     7
 10
0.540256
 20
0.421778
 30
0.0
 11
0.577415
 21
0.420229
 31
0.0
 12
0.540256
 22
0.421778
 32
0.0
 13
0.571222
 23
0.440366
 33
0.0
  0
SOLID
  5
336
  8
0
 62
     7
 10
0.038607
 20
0.503872
 30
0.0
 11
0.0
 21
0.48
 31
0.0
 12
0.038607
 22
0.503872
 32
0.0
 13
0.033962
 23
0.4636
 33
0.0
  0
SOLID
  5
337
  8
0
 62
     7
 10
0.357557
 20
0.308705
 30
0.0
 11
0.36375
 21
0.28702
 31
0.0
 12
0.357557
 22
0.308705
 32
0.0
 13
0.397812
 23
0.302509
 33
0.0
  0
SOLID
  5
338
  8
0
 62
     7
 10
0.071122
 20
0.293216
 30
0.0
 11
0.083508
 21
0.266884
 31
0.0
 12
0.071122
 22
0.293216
 32
0.0
 13
0.108281
 23
0.276177
 33
0.0
  0
SOLID
  5
339
  8
0
 62
     7
 10
0.338977
 20
0.568928
 30
0.0
 11
0.35446
 21
0.599907
 31
0.0
 12
0.338977
 22
0.568928
 32
0.0
 13
0.325042
 23
0.607652
 33
0.0
  0
SOLID
  5
33A
  8
0
 62
     7
 10
0.338977
 20
0.568928
 30
0.0
 11
0.325042
 21
0.607652
 31
0.0
 12
0.338977
 22
0.568928
 32
0.0
 13
0.311108
 23
0.592162
 33
0.0
  0
SOLID
  5
33B
  8
0
 62
     7
 10
0.19034
 20
0.542596
 30
0.0
 11
0.165568
 21
0.544145
 31
0.0
 12
0.19034
 22
0.542596
 32
0.0
 13
0.150085
 23
0.531753
 33
0.0
  0
SOLID
  5
33C
  8
0
 62
     7
 10
0.326591
 20
0.553439
 30
0.0
 11
0.338977
 21
0.568928
 31
0.0
 12
0.326591
 22
0.553439
 32
0.0
 13
0.311108
 23
0.592162
 33
0.0
  0
SOLID
  5
33D
  8
0
 62
     7
 10
0.326591
 20
0.553439
 30
0.0
 11
0.311108
 21
0.592162
 31
0.0
 12
0.326591
 22
0.553439
 32
0.0
 13
0.292528
 23
0.56583
 33
0.0
  0
SOLID
  5
33E
  8
0
 62
     7
 10
0.320397
 20
0.5364
 30
0.0
 11
0.326591
 21
0.553439
 31
0.0
 12
0.320397
 22
0.5364
 32
0.0
 13
0.292528
 23
0.56583
 33
0.0
  0
SOLID
  5
33F
  8
0
 62
     7
 10
0.320397
 20
0.5364
 30
0.0
 11
0.292528
 21
0.56583
 31
0.0
 12
0.320397
 22
0.5364
 32
0.0
 13
0.28169
 23
0.544145
 33
0.0
  0
SOLID
  5
340
  8
0
 62
     7
 10
0.108281
 20
0.276177
 30
0.0
 11
0.11757
 21
0.291667
 31
0.0
 12
0.108281
 22
0.276177
 32
0.0
 13
0.11757
 23
0.317999
 33
0.0
  0
SOLID
  5
341
  8
0
 62
     7
 10
0.357557
 20
0.308705
 30
0.0
 11
0.397812
 21
0.302509
 31
0.0
 12
0.357557
 22
0.308705
 32
0.0
 13
0.394716
 23
0.33039
 33
0.0
  0
SOLID
  5
342
  8
0
 62
     7
 10
0.35446
 20
0.331939
 30
0.0
 11
0.357557
 21
0.308705
 31
0.0
 12
0.35446
 22
0.331939
 32
0.0
 13
0.394716
 23
0.33039
 33
0.0
  0
SOLID
  5
343
  8
0
 62
     7
 10
0.35446
 20
0.331939
 30
0.0
 11
0.394716
 21
0.33039
 31
0.0
 12
0.35446
 22
0.331939
 32
0.0
 13
0.390071
 23
0.348978
 33
0.0
  0
SOLID
  5
344
  8
0
 62
     7
 10
0.482969
 20
0.499226
 30
0.0
 11
0.464389
 21
0.496128
 31
0.0
 12
0.482969
 22
0.499226
 32
0.0
 13
0.44581
 23
0.47754
 33
0.0
  0
SOLID
  5
345
  8
0
 62
     7
 10
0.320397
 20
0.524009
 30
0.0
 11
0.320397
 21
0.5364
 31
0.0
 12
0.320397
 22
0.524009
 32
0.0
 13
0.28169
 23
0.544145
 33
0.0
  0
SOLID
  5
346
  8
0
 62
     7
 10
0.540256
 20
0.421778
 30
0.0
 11
0.571222
 21
0.440366
 31
0.0
 12
0.540256
 22
0.421778
 32
0.0
 13
0.557287
 23
0.462051
 33
0.0
  0
SOLID
  5
347
  8
0
 62
     7
 10
0.515483
 20
0.44811
 30
0.0
 11
0.540256
 21
0.421778
 31
0.0
 12
0.515483
 22
0.44811
 32
0.0
 13
0.557287
 23
0.462051
 33
0.0
  0
SOLID
  5
348
  8
0
 62
     7
 10
0.515483
 20
0.44811
 30
0.0
 11
0.557287
 21
0.462051
 31
0.0
 12
0.515483
 22
0.44811
 32
0.0
 13
0.526321
 23
0.488383
 33
0.0
  0
SOLID
  5
349
  8
0
 62
     7
 10
0.496903
 20
0.458953
 30
0.0
 11
0.515483
 21
0.44811
 31
0.0
 12
0.496903
 22
0.458953
 32
0.0
 13
0.526321
 23
0.488383
 33
0.0
  0
SOLID
  5
34A
  8
0
 62
     7
 10
0.496903
 20
0.458953
 30
0.0
 11
0.526321
 21
0.488383
 31
0.0
 12
0.496903
 22
0.458953
 32
0.0
 13
0.512386
 23
0.49303
 33
0.0
  0
SOLID
  5
34B
  8
0
 62
     7
 10
0.496903
 20
0.458953
 30
0.0
 11
0.512386
 21
0.49303
 31
0.0
 12
0.496903
 22
0.458953
 32
0.0
 13
0.482969
 23
0.499226
 33
0.0
  0
SOLID
  5
34C
  8
0
 62
     7
 10
0.484517
 20
0.458953
 30
0.0
 11
0.496903
 21
0.458953
 31
0.0
 12
0.484517
 22
0.458953
 32
0.0
 13
0.482969
 23
0.499226
 33
0.0
  0
SOLID
  5
34D
  8
0
 62
     7
 10
0.484517
 20
0.458953
 30
0.0
 11
0.482969
 21
0.499226
 31
0.0
 12
0.484517
 22
0.458953
 32
0.0
 13
0.44581
 23
0.47754
 33
0.0
  0
SOLID
  5
34E
  8
0
 62
     7
 10
0.464389
 20
0.44811
 30
0.0
 11
0.484517
 21
0.458953
 31
0.0
 12
0.464389
 22
0.44811
 32
0.0
 13
0.44581
 23
0.47754
 33
0.0
  0
SOLID
  5
34F
  8
0
 62
     7
 10
0.458196
 20
0.438817
 30
0.0
 11
0.464389
 21
0.44811
 31
0.0
 12
0.458196
 22
0.438817
 32
0.0
 13
0.44581
 23
0.47754
 33
0.0
  0
SOLID
  5
350
  8
0
 62
     7
 10
0.43652
 20
0.38925
 30
0.0
 11
0.455099
 21
0.376859
 31
0.0
 12
0.43652
 22
0.38925
 32
0.0
 13
0.479872
 23
0.401642
 33
0.0
  0
SOLID
  5
351
  8
0
 62
     7
 10
0.43652
 20
0.38925
 30
0.0
 11
0.479872
 21
0.401642
 31
0.0
 12
0.43652
 22
0.38925
 32
0.0
 13
0.462841
 23
0.424876
 33
0.0
  0
SOLID
  5
352
  8
0
 62
     7
 10
0.320397
 20
0.524009
 30
0.0
 11
0.28169
 21
0.544145
 31
0.0
 12
0.320397
 22
0.524009
 32
0.0
 13
0.273949
 23
0.525558
 33
0.0
  0
SOLID
  5
353
  8
0
 62
     7
 10
0.123764
 20
0.327292
 30
0.0
 11
0.139247
 21
0.348978
 31
0.0
 12
0.123764
 22
0.327292
 32
0.0
 13
0.129957
 23
0.373761
 33
0.0
  0
SOLID
  5
354
  8
0
 62
     7
 10
0.323494
 20
0.435719
 30
0.0
 11
0.323494
 21
0.41868
 31
0.0
 12
0.323494
 22
0.435719
 32
0.0
 13
0.329687
 23
0.38925
 33
0.0
  0
SOLID
  5
355
  8
0
 62
     7
 10
0.458196
 20
0.438817
 30
0.0
 11
0.44581
 21
0.47754
 31
0.0
 12
0.458196
 22
0.438817
 32
0.0
 13
0.424133
 23
0.471344
 33
0.0
  0
SOLID
  5
356
  8
0
 62
     7
 10
0.033962
 20
0.4636
 30
0.0
 11
0.07267
 21
0.462051
 31
0.0
 12
0.033962
 22
0.4636
 32
0.0
 13
0.085056
 23
0.462051
 33
0.0
  0
SOLID
  5
357
  8
0
 62
     7
 10
0.411747
 20
0.417131
 30
0.0
 11
0.43652
 21
0.38925
 31
0.0
 12
0.411747
 22
0.417131
 32
0.0
 13
0.462841
 23
0.424876
 33
0.0
  0
SOLID
  5
358
  8
0
 62
     7
 10
0.411747
 20
0.417131
 30
0.0
 11
0.462841
 21
0.424876
 31
0.0
 12
0.411747
 22
0.417131
 32
0.0
 13
0.458196
 23
0.438817
 33
0.0
  0
SOLID
  5
359
  8
0
 62
     7
 10
0.108281
 20
0.426425
 30
0.0
 11
0.100539
 21
0.410936
 31
0.0
 12
0.108281
 22
0.426425
 32
0.0
 13
0.092798
 23
0.376859
 33
0.0
  0
SOLID
  5
35A
  8
0
 62
     7
 10
0.19034
 20
0.542596
 30
0.0
 11
0.150085
 21
0.531753
 31
0.0
 12
0.19034
 22
0.542596
 32
0.0
 13
0.140795
 23
0.525558
 33
0.0
  0
SOLID
  5
35B
  8
0
 62
     7
 10
0.071122
 20
0.293216
 30
0.0
 11
0.108281
 21
0.276177
 31
0.0
 12
0.071122
 22
0.293216
 32
0.0
 13
0.11757
 23
0.317999
 33
0.0
  0
SOLID
  5
35C
  8
0
 62
     7
 10
0.078863
 20
0.324195
 30
0.0
 11
0.071122
 21
0.293216
 31
0.0
 12
0.078863
 22
0.324195
 32
0.0
 13
0.11757
 23
0.317999
 33
0.0
  0
SOLID
  5
35D
  8
0
 62
     7
 10
0.092798
 20
0.342782
 30
0.0
 11
0.078863
 21
0.324195
 31
0.0
 12
0.092798
 22
0.342782
 32
0.0
 13
0.11757
 23
0.317999
 33
0.0
  0
SOLID
  5
35E
  8
0
 62
     7
 10
0.092798
 20
0.342782
 30
0.0
 11
0.11757
 21
0.317999
 31
0.0
 12
0.092798
 22
0.342782
 32
0.0
 13
0.123764
 23
0.327292
 33
0.0
  0
SOLID
  5
35F
  8
0
 62
     7
 10
0.098991
 20
0.353625
 30
0.0
 11
0.092798
 21
0.342782
 31
0.0
 12
0.098991
 22
0.353625
 32
0.0
 13
0.123764
 23
0.327292
 33
0.0
  0
SOLID
  5
360
  8
0
 62
     7
 10
0.098991
 20
0.353625
 30
0.0
 11
0.123764
 21
0.327292
 31
0.0
 12
0.098991
 22
0.353625
 32
0.0
 13
0.129957
 23
0.373761
 33
0.0
  0
SOLID
  5
361
  8
0
 62
     7
 10
0.092798
 20
0.376859
 30
0.0
 11
0.098991
 21
0.353625
 31
0.0
 12
0.092798
 22
0.376859
 32
0.0
 13
0.129957
 23
0.373761
 33
0.0
  0
SOLID
  5
362
  8
0
 62
     7
 10
0.092798
 20
0.376859
 30
0.0
 11
0.129957
 21
0.373761
 31
0.0
 12
0.092798
 22
0.376859
 32
0.0
 13
0.139247
 23
0.400093
 33
0.0
  0
SOLID
  5
363
  8
0
 62
     7
 10
0.108281
 20
0.426425
 30
0.0
 11
0.092798
 21
0.376859
 31
0.0
 12
0.108281
 22
0.426425
 32
0.0
 13
0.139247
 23
0.400093
 33
0.0
  0
SOLID
  5
364
  8
0
 62
     7
 10
0.108281
 20
0.426425
 30
0.0
 11
0.139247
 21
0.400093
 31
0.0
 12
0.108281
 22
0.426425
 32
0.0
 13
0.13615
 23
0.432621
 33
0.0
  0
SOLID
  5
365
  8
0
 62
     7
 10
0.102087
 20
0.438817
 30
0.0
 11
0.108281
 21
0.426425
 31
0.0
 12
0.102087
 22
0.438817
 32
0.0
 13
0.13615
 23
0.432621
 33
0.0
  0
SOLID
  5
366
  8
0
 62
     7
 10
0.102087
 20
0.438817
 30
0.0
 11
0.13615
 21
0.432621
 31
0.0
 12
0.102087
 22
0.438817
 32
0.0
 13
0.139247
 23
0.469796
 33
0.0
  0
SOLID
  5
367
  8
0
 62
     7
 10
0.091249
 20
0.455855
 30
0.0
 11
0.102087
 21
0.438817
 31
0.0
 12
0.091249
 22
0.455855
 32
0.0
 13
0.139247
 23
0.469796
 33
0.0
  0
SOLID
  5
368
  8
0
 62
     7
 10
0.116022
 20
0.513166
 30
0.0
 11
0.094346
 21
0.516264
 31
0.0
 12
0.116022
 22
0.513166
 32
0.0
 13
0.06338
 23
0.516264
 33
0.0
  0
SOLID
  5
369
  8
0
 62
     7
 10
0.338977
 20
0.364467
 30
0.0
 11
0.35446
 21
0.331939
 31
0.0
 12
0.338977
 22
0.364467
 32
0.0
 13
0.390071
 23
0.348978
 33
0.0
  0
SOLID
  5
36A
  8
0
 62
     7
 10
0.338977
 20
0.364467
 30
0.0
 11
0.390071
 21
0.348978
 31
0.0
 12
0.338977
 22
0.364467
 32
0.0
 13
0.380781
 23
0.379957
 33
0.0
  0
SOLID
  5
36B
  8
0
 62
     7
 10
0.338977
 20
0.364467
 30
0.0
 11
0.380781
 21
0.379957
 31
0.0
 12
0.338977
 22
0.364467
 32
0.0
 13
0.376136
 23
0.400093
 33
0.0
  0
SOLID
  5
36C
  8
0
 62
     7
 10
0.329687
 20
0.38925
 30
0.0
 11
0.338977
 21
0.364467
 31
0.0
 12
0.329687
 22
0.38925
 32
0.0
 13
0.376136
 23
0.400093
 33
0.0
  0
SOLID
  5
36D
  8
0
 62
     7
 10
0.085056
 20
0.462051
 30
0.0
 11
0.091249
 21
0.455855
 31
0.0
 12
0.085056
 22
0.462051
 32
0.0
 13
0.139247
 23
0.469796
 33
0.0
  0
SOLID
  5
36E
  8
0
 62
     7
 10
0.411747
 20
0.417131
 30
0.0
 11
0.458196
 21
0.438817
 31
0.0
 12
0.411747
 22
0.417131
 32
0.0
 13
0.424133
 23
0.471344
 33
0.0
  0
SOLID
  5
36F
  8
0
 62
     7
 10
0.411747
 20
0.417131
 30
0.0
 11
0.424133
 21
0.471344
 31
0.0
 12
0.411747
 22
0.417131
 32
0.0
 13
0.407102
 23
0.468247
 33
0.0
  0
SOLID
  5
370
  8
0
 62
     7
 10
0.394716
 20
0.420229
 30
0.0
 11
0.411747
 21
0.417131
 31
0.0
 12
0.394716
 22
0.420229
 32
0.0
 13
0.407102
 23
0.468247
 33
0.0
  0
SOLID
  5
371
  8
0
 62
     7
 10
0.394716
 20
0.420229
 30
0.0
 11
0.407102
 21
0.468247
 31
0.0
 12
0.394716
 22
0.420229
 32
0.0
 13
0.386974
 23
0.465149
 33
0.0
  0
SOLID
  5
372
  8
0
 62
     7
 10
0.382329
 20
0.414033
 30
0.0
 11
0.394716
 21
0.420229
 31
0.0
 12
0.382329
 22
0.414033
 32
0.0
 13
0.386974
 23
0.465149
 33
0.0
  0
SOLID
  5
373
  8
0
 62
     7
 10
0.329687
 20
0.510068
 30
0.0
 11
0.320397
 21
0.524009
 31
0.0
 12
0.329687
 22
0.510068
 32
0.0
 13
0.273949
 23
0.525558
 33
0.0
  0
SOLID
  5
374
  8
0
 62
     7
 10
0.20892
 20
0.49303
 30
0.0
 11
0.232144
 21
0.483736
 31
0.0
 12
0.20892
 22
0.49303
 32
0.0
 13
0.266207
 23
0.483736
 33
0.0
  0
SOLID
  5
375
  8
0
 62
     7
 10
0.329687
 20
0.38925
 30
0.0
 11
0.376136
 21
0.400093
 31
0.0
 12
0.329687
 22
0.38925
 32
0.0
 13
0.382329
 23
0.414033
 33
0.0
  0
SOLID
  5
376
  8
0
 62
     7
 10
0.06338
 20
0.516264
 30
0.0
 11
0.038607
 21
0.503872
 31
0.0
 12
0.06338
 22
0.516264
 32
0.0
 13
0.033962
 23
0.4636
 33
0.0
  0
SOLID
  5
377
  8
0
 62
     7
 10
0.06338
 20
0.516264
 30
0.0
 11
0.033962
 21
0.4636
 31
0.0
 12
0.06338
 22
0.516264
 32
0.0
 13
0.085056
 23
0.462051
 33
0.0
  0
SOLID
  5
378
  8
0
 62
     7
 10
0.116022
 20
0.513166
 30
0.0
 11
0.06338
 21
0.516264
 31
0.0
 12
0.116022
 22
0.513166
 32
0.0
 13
0.085056
 23
0.462051
 33
0.0
  0
SOLID
  5
379
  8
0
 62
     7
 10
0.116022
 20
0.513166
 30
0.0
 11
0.085056
 21
0.462051
 31
0.0
 12
0.116022
 22
0.513166
 32
0.0
 13
0.139247
 23
0.469796
 33
0.0
  0
SOLID
  5
37A
  8
0
 62
     7
 10
0.116022
 20
0.513166
 30
0.0
 11
0.139247
 21
0.469796
 31
0.0
 12
0.116022
 22
0.513166
 32
0.0
 13
0.164019
 23
0.486834
 33
0.0
  0
SOLID
  5
37B
  8
0
 62
     7
 10
0.140795
 20
0.525558
 30
0.0
 11
0.116022
 21
0.513166
 31
0.0
 12
0.140795
 22
0.525558
 32
0.0
 13
0.164019
 23
0.486834
 33
0.0
  0
SOLID
  5
37C
  8
0
 62
     7
 10
0.140795
 20
0.525558
 30
0.0
 11
0.164019
 21
0.486834
 31
0.0
 12
0.140795
 22
0.525558
 32
0.0
 13
0.179502
 23
0.49303
 33
0.0
  0
SOLID
  5
37D
  8
0
 62
     7
 10
0.19034
 20
0.542596
 30
0.0
 11
0.140795
 21
0.525558
 31
0.0
 12
0.19034
 22
0.542596
 32
0.0
 13
0.179502
 23
0.49303
 33
0.0
  0
SOLID
  5
37E
  8
0
 62
     7
 10
0.19034
 20
0.542596
 30
0.0
 11
0.179502
 21
0.49303
 31
0.0
 12
0.19034
 22
0.542596
 32
0.0
 13
0.198082
 23
0.49303
 33
0.0
  0
SOLID
  5
37F
  8
0
 62
     7
 10
0.224403
 20
0.527107
 30
0.0
 11
0.19034
 21
0.542596
 31
0.0
 12
0.224403
 22
0.527107
 32
0.0
 13
0.198082
 23
0.49303
 33
0.0
  0
SOLID
  5
380
  8
0
 62
     7
 10
0.224403
 20
0.527107
 30
0.0
 11
0.198082
 21
0.49303
 31
0.0
 12
0.224403
 22
0.527107
 32
0.0
 13
0.20892
 23
0.49303
 33
0.0
  0
SOLID
  5
381
  8
0
 62
     7
 10
0.241434
 20
0.520911
 30
0.0
 11
0.224403
 21
0.527107
 31
0.0
 12
0.241434
 22
0.520911
 32
0.0
 13
0.20892
 23
0.49303
 33
0.0
  0
SOLID
  5
382
  8
0
 62
     7
 10
0.241434
 20
0.520911
 30
0.0
 11
0.20892
 21
0.49303
 31
0.0
 12
0.241434
 22
0.520911
 32
0.0
 13
0.266207
 23
0.483736
 33
0.0
  0
SOLID
  5
383
  8
0
 62
     7
 10
0.258466
 20
0.519362
 30
0.0
 11
0.241434
 21
0.520911
 31
0.0
 12
0.258466
 22
0.519362
 32
0.0
 13
0.266207
 23
0.483736
 33
0.0
  0
SOLID
  5
384
  8
0
 62
     7
 10
0.273949
 20
0.525558
 30
0.0
 11
0.258466
 21
0.519362
 31
0.0
 12
0.273949
 22
0.525558
 32
0.0
 13
0.266207
 23
0.483736
 33
0.0
  0
SOLID
  5
385
  8
0
 62
     7
 10
0.273949
 20
0.525558
 30
0.0
 11
0.266207
 21
0.483736
 31
0.0
 12
0.273949
 22
0.525558
 32
0.0
 13
0.286335
 23
0.483736
 33
0.0
  0
SOLID
  5
386
  8
0
 62
     7
 10
0.329687
 20
0.510068
 30
0.0
 11
0.273949
 21
0.525558
 31
0.0
 12
0.329687
 22
0.510068
 32
0.0
 13
0.286335
 23
0.483736
 33
0.0
  0
SOLID
  5
387
  8
0
 62
     7
 10
0.329687
 20
0.510068
 30
0.0
 11
0.286335
 21
0.483736
 31
0.0
 12
0.329687
 22
0.510068
 32
0.0
 13
0.311108
 23
0.468247
 33
0.0
  0
SOLID
  5
388
  8
0
 62
     7
 10
0.349815
 20
0.485285
 30
0.0
 11
0.329687
 21
0.510068
 31
0.0
 12
0.349815
 22
0.485285
 32
0.0
 13
0.311108
 23
0.468247
 33
0.0
  0
SOLID
  5
389
  8
0
 62
     7
 10
0.349815
 20
0.485285
 30
0.0
 11
0.311108
 21
0.468247
 31
0.0
 12
0.349815
 22
0.485285
 32
0.0
 13
0.320397
 23
0.455855
 33
0.0
  0
SOLID
  5
38A
  8
0
 62
     7
 10
0.368395
 20
0.472893
 30
0.0
 11
0.349815
 21
0.485285
 31
0.0
 12
0.368395
 22
0.472893
 32
0.0
 13
0.320397
 23
0.455855
 33
0.0
  0
SOLID
  5
38B
  8
0
 62
     7
 10
0.368395
 20
0.472893
 30
0.0
 11
0.320397
 21
0.455855
 31
0.0
 12
0.368395
 22
0.472893
 32
0.0
 13
0.323494
 23
0.435719
 33
0.0
  0
SOLID
  5
38C
  8
0
 62
     7
 10
0.382329
 20
0.414033
 30
0.0
 11
0.386974
 21
0.465149
 31
0.0
 12
0.382329
 22
0.414033
 32
0.0
 13
0.368395
 23
0.472893
 33
0.0
  0
SOLID
  5
38D
  8
0
 62
     7
 10
0.382329
 20
0.414033
 30
0.0
 11
0.368395
 21
0.472893
 31
0.0
 12
0.382329
 22
0.414033
 32
0.0
 13
0.323494
 23
0.435719
 33
0.0
  0
SOLID
  5
38E
  8
0
 62
     7
 10
0.329687
 20
0.38925
 30
0.0
 11
0.382329
 21
0.414033
 31
0.0
 12
0.329687
 22
0.38925
 32
0.0
 13
0.323494
 23
0.435719
 33
0.0
  0
SOLID
  5
38F
  8
0
 62
     7
 10
0.179327
 20
0.410887
 30
0.0
 11
0.183975
 21
0.404688
 31
0.0
 12
0.179327
 22
0.410887
 32
0.0
 13
0.194819
 23
0.404688
 33
0.0
  0
SOLID
  5
390
  8
0
 62
     7
 10
0.194819
 20
0.454281
 30
0.0
 11
0.187073
 21
0.451182
 31
0.0
 12
0.194819
 22
0.454281
 32
0.0
 13
0.177778
 23
0.441883
 33
0.0
  0
SOLID
  5
391
  8
0
 62
     7
 10
0.224252
 20
0.413987
 30
0.0
 11
0.235096
 21
0.417086
 31
0.0
 12
0.224252
 22
0.413987
 32
0.0
 13
0.241293
 23
0.429484
 33
0.0
  0
SOLID
  5
392
  8
0
 62
     7
 10
0.179327
 20
0.410887
 30
0.0
 11
0.194819
 21
0.404688
 31
0.0
 12
0.179327
 22
0.410887
 32
0.0
 13
0.208761
 23
0.410887
 33
0.0
  0
SOLID
  5
393
  8
0
 62
     7
 10
0.177778
 20
0.441883
 30
0.0
 11
0.17468
 21
0.429484
 31
0.0
 12
0.177778
 22
0.441883
 32
0.0
 13
0.179327
 23
0.410887
 33
0.0
  0
SOLID
  5
394
  8
0
 62
     7
 10
0.208761
 20
0.452731
 30
0.0
 11
0.194819
 21
0.454281
 31
0.0
 12
0.208761
 22
0.452731
 32
0.0
 13
0.177778
 23
0.441883
 33
0.0
  0
SOLID
  5
395
  8
0
 62
     7
 10
0.224252
 20
0.413987
 30
0.0
 11
0.241293
 21
0.429484
 31
0.0
 12
0.224252
 22
0.413987
 32
0.0
 13
0.242842
 23
0.443433
 33
0.0
  0
SOLID
  5
396
  8
0
 62
     7
 10
0.224252
 20
0.413987
 30
0.0
 11
0.242842
 21
0.443433
 31
0.0
 12
0.224252
 22
0.413987
 32
0.0
 13
0.208761
 23
0.452731
 33
0.0
  0
SOLID
  5
397
  8
0
 62
     7
 10
0.208761
 20
0.410887
 30
0.0
 11
0.224252
 21
0.413987
 31
0.0
 12
0.208761
 22
0.410887
 32
0.0
 13
0.208761
 23
0.452731
 33
0.0
  0
SOLID
  5
398
  8
0
 62
     7
 10
0.208761
 20
0.410887
 30
0.0
 11
0.208761
 21
0.452731
 31
0.0
 12
0.208761
 22
0.410887
 32
0.0
 13
0.177778
 23
0.441883
 33
0.0
  0
SOLID
  5
399
  8
0
 62
     7
 10
0.179327
 20
0.410887
 30
0.0
 11
0.208761
 21
0.410887
 31
0.0
 12
0.179327
 22
0.410887
 32
0.0
 13
0.177778
 23
0.441883
 33
0.0
  0
SOLID
  5
39A
  8
0
 62
     7
 10
0.238338
 20
0.186338
 30
0.0
 11
0.247627
 21
0.194083
 31
0.0
 12
0.238338
 22
0.186338
 32
0.0
 13
0.241434
 23
0.214219
 33
0.0
  0
SOLID
  5
39B
  8
0
 62
     7
 10
0.21821
 20
0.190985
 30
0.0
 11
0.238338
 21
0.186338
 31
0.0
 12
0.21821
 22
0.190985
 32
0.0
 13
0.241434
 23
0.214219
 33
0.0
  0
SOLID
  5
39C
  8
0
 62
     7
 10
0.320397
 20
0.274628
 30
0.0
 11
0.334332
 21
0.279275
 31
0.0
 12
0.320397
 22
0.274628
 32
0.0
 13
0.334332
 23
0.307156
 33
0.0
  0
SOLID
  5
39D
  8
0
 62
     7
 10
0.30027
 20
0.293216
 30
0.0
 11
0.320397
 21
0.274628
 31
0.0
 12
0.30027
 22
0.293216
 32
0.0
 13
0.334332
 23
0.307156
 33
0.0
  0
SOLID
  5
39E
  8
0
 62
     7
 10
0.303366
 20
0.09495
 30
0.0
 11
0.308011
 21
0.116636
 31
0.0
 12
0.303366
 22
0.09495
 32
0.0
 13
0.287883
 23
0.130576
 33
0.0
  0
SOLID
  5
39F
  8
0
 62
     7
 10
0.16
 20
0.0
 30
0.0
 11
0.168664
 21
0.017503
 31
0.0
 12
0.16
 22
0.0
 32
0.0
 13
0.171761
 23
0.039188
 33
0.0
  0
SOLID
  5
3A0
  8
0
 62
     7
 10
0.30027
 20
0.293216
 30
0.0
 11
0.334332
 21
0.307156
 31
0.0
 12
0.30027
 22
0.293216
 32
0.0
 13
0.321946
 23
0.328841
 33
0.0
  0
SOLID
  5
3A1
  8
0
 62
     7
 10
0.29098
 20
0.319548
 30
0.0
 11
0.30027
 21
0.293216
 31
0.0
 12
0.29098
 22
0.319548
 32
0.0
 13
0.321946
 23
0.328841
 33
0.0
  0
SOLID
  5
3A2
  8
0
 62
     7
 10
0.29098
 20
0.319548
 30
0.0
 11
0.321946
 21
0.328841
 31
0.0
 12
0.29098
 22
0.319548
 32
0.0
 13
0.311108
 23
0.350527
 33
0.0
  0
SOLID
  5
3A3
  8
0
 62
     7
 10
0.278593
 20
0.341233
 30
0.0
 11
0.29098
 21
0.319548
 31
0.0
 12
0.278593
 22
0.341233
 32
0.0
 13
0.311108
 23
0.350527
 33
0.0
  0
SOLID
  5
3A4
  8
0
 62
     7
 10
0.278593
 20
0.341233
 30
0.0
 11
0.311108
 21
0.350527
 31
0.0
 12
0.278593
 22
0.341233
 32
0.0
 13
0.301818
 23
0.372212
 33
0.0
  0
SOLID
  5
3A5
  8
0
 62
     7
 10
0.269304
 20
0.350527
 30
0.0
 11
0.278593
 21
0.341233
 31
0.0
 12
0.269304
 22
0.350527
 32
0.0
 13
0.301818
 23
0.372212
 33
0.0
  0
SOLID
  5
3A6
  8
0
 62
     7
 10
0.269304
 20
0.350527
 30
0.0
 11
0.301818
 21
0.372212
 31
0.0
 12
0.269304
 22
0.350527
 32
0.0
 13
0.278593
 23
0.38925
 33
0.0
  0
SOLID
  5
3A7
  8
0
 62
     7
 10
0.224403
 20
0.085657
 30
0.0
 11
0.238338
 21
0.085657
 31
0.0
 12
0.224403
 22
0.085657
 32
0.0
 13
0.266207
 23
0.090304
 33
0.0
  0
SOLID
  5
3A8
  8
0
 62
     7
 10
0.250724
 20
0.356722
 30
0.0
 11
0.269304
 21
0.350527
 31
0.0
 12
0.250724
 22
0.356722
 32
0.0
 13
0.278593
 23
0.38925
 33
0.0
  0
SOLID
  5
3A9
  8
0
 62
     7
 10
0.250724
 20
0.356722
 30
0.0
 11
0.278593
 21
0.38925
 31
0.0
 12
0.250724
 22
0.356722
 32
0.0
 13
0.242983
 23
0.386152
 33
0.0
  0
SOLID
  5
3AA
  8
0
 62
     7
 10
0.238338
 20
0.352076
 30
0.0
 11
0.250724
 21
0.356722
 31
0.0
 12
0.238338
 22
0.352076
 32
0.0
 13
0.242983
 23
0.386152
 33
0.0
  0
SOLID
  5
3AB
  8
0
 62
     7
 10
0.238338
 20
0.352076
 30
0.0
 11
0.242983
 21
0.386152
 31
0.0
 12
0.238338
 22
0.352076
 32
0.0
 13
0.212017
 23
0.364467
 33
0.0
  0
SOLID
  5
3AC
  8
0
 62
     7
 10
0.219758
 20
0.331939
 30
0.0
 11
0.238338
 21
0.352076
 31
0.0
 12
0.219758
 22
0.331939
 32
0.0
 13
0.212017
 23
0.364467
 33
0.0
  0
SOLID
  5
3AD
  8
0
 62
     7
 10
0.219758
 20
0.331939
 30
0.0
 11
0.212017
 21
0.364467
 31
0.0
 12
0.219758
 22
0.331939
 32
0.0
 13
0.184147
 23
0.33039
 33
0.0
  0
SOLID
  5
3AE
  8
0
 62
     7
 10
0.210468
 20
0.319548
 30
0.0
 11
0.219758
 21
0.331939
 31
0.0
 12
0.210468
 22
0.319548
 32
0.0
 13
0.184147
 23
0.33039
 33
0.0
  0
SOLID
  5
3AF
  8
0
 62
     7
 10
0.198082
 20
0.294765
 30
0.0
 11
0.210468
 21
0.319548
 31
0.0
 12
0.198082
 22
0.294765
 32
0.0
 13
0.184147
 23
0.33039
 33
0.0
  0
SOLID
  5
3B0
  8
0
 62
     7
 10
0.198082
 20
0.294765
 30
0.0
 11
0.184147
 21
0.33039
 31
0.0
 12
0.198082
 22
0.294765
 32
0.0
 13
0.171761
 23
0.296314
 33
0.0
  0
SOLID
  5
3B1
  8
0
 62
     7
 10
0.191889
 20
0.277726
 30
0.0
 11
0.198082
 21
0.294765
 31
0.0
 12
0.191889
 22
0.277726
 32
0.0
 13
0.171761
 23
0.296314
 33
0.0
  0
SOLID
  5
3B2
  8
0
 62
     7
 10
0.191889
 20
0.277726
 30
0.0
 11
0.171761
 21
0.296314
 31
0.0
 12
0.191889
 22
0.277726
 32
0.0
 13
0.159374
 23
0.263786
 33
0.0
  0
SOLID
  5
3B3
  8
0
 62
     7
 10
0.201179
 20
0.252943
 30
0.0
 11
0.191889
 21
0.277726
 31
0.0
 12
0.201179
 22
0.252943
 32
0.0
 13
0.159374
 23
0.263786
 33
0.0
  0
SOLID
  5
3B4
  8
0
 62
     7
 10
0.137698
 20
0.037639
 30
0.0
 11
0.12
 21
0.0
 31
0.0
 12
0.137698
 22
0.037639
 32
0.0
 13
0.16
 23
0.0
 33
0.0
  0
SOLID
  5
3B5
  8
0
 62
     7
 10
0.137698
 20
0.037639
 30
0.0
 11
0.16
 21
0.0
 31
0.0
 12
0.137698
 22
0.037639
 32
0.0
 13
0.171761
 23
0.039188
 33
0.0
  0
SOLID
  5
3B6
  8
0
 62
     7
 10
0.196534
 20
0.215768
 30
0.0
 11
0.21821
 21
0.190985
 31
0.0
 12
0.196534
 22
0.215768
 32
0.0
 13
0.241434
 23
0.214219
 33
0.0
  0
SOLID
  5
3B7
  8
0
 62
     7
 10
0.196534
 20
0.215768
 30
0.0
 11
0.241434
 21
0.214219
 31
0.0
 12
0.196534
 22
0.215768
 32
0.0
 13
0.222855
 23
0.235905
 33
0.0
  0
SOLID
  5
3B8
  8
0
 62
     7
 10
0.187244
 20
0.226611
 30
0.0
 11
0.196534
 21
0.215768
 31
0.0
 12
0.187244
 22
0.226611
 32
0.0
 13
0.222855
 23
0.235905
 33
0.0
  0
SOLID
  5
3B9
  8
0
 62
     7
 10
0.187244
 20
0.226611
 30
0.0
 11
0.222855
 21
0.235905
 31
0.0
 12
0.187244
 22
0.226611
 32
0.0
 13
0.201179
 23
0.252943
 33
0.0
  0
SOLID
  5
3BA
  8
0
 62
     7
 10
0.174857
 20
0.232807
 30
0.0
 11
0.187244
 21
0.226611
 31
0.0
 12
0.174857
 22
0.232807
 32
0.0
 13
0.201179
 23
0.252943
 33
0.0
  0
SOLID
  5
3BB
  8
0
 62
     7
 10
0.174857
 20
0.232807
 30
0.0
 11
0.201179
 21
0.252943
 31
0.0
 12
0.174857
 22
0.232807
 32
0.0
 13
0.159374
 23
0.263786
 33
0.0
  0
SOLID
  5
3BC
  8
0
 62
     7
 10
0.174857
 20
0.232807
 30
0.0
 11
0.159374
 21
0.263786
 31
0.0
 12
0.174857
 22
0.232807
 32
0.0
 13
0.13615
 23
0.239002
 33
0.0
  0
SOLID
  5
3BD
  8
0
 62
     7
 10
0.15473
 20
0.223513
 30
0.0
 11
0.174857
 21
0.232807
 31
0.0
 12
0.15473
 22
0.223513
 32
0.0
 13
0.13615
 23
0.239002
 33
0.0
  0
SOLID
  5
3BE
  8
0
 62
     7
 10
0.15473
 20
0.223513
 30
0.0
 11
0.13615
 21
0.239002
 31
0.0
 12
0.15473
 22
0.223513
 32
0.0
 13
0.11757
 23
0.217317
 33
0.0
  0
SOLID
  5
3BF
  8
0
 62
     7
 10
0.148536
 20
0.197181
 30
0.0
 11
0.15473
 21
0.223513
 31
0.0
 12
0.148536
 22
0.197181
 32
0.0
 13
0.11757
 23
0.217317
 33
0.0
  0
SOLID
  5
3C0
  8
0
 62
     7
 10
0.266207
 20
0.090304
 30
0.0
 11
0.303366
 21
0.09495
 31
0.0
 12
0.266207
 22
0.090304
 32
0.0
 13
0.287883
 23
0.130576
 33
0.0
  0
SOLID
  5
3C1
  8
0
 62
     7
 10
0.266207
 20
0.090304
 30
0.0
 11
0.287883
 21
0.130576
 31
0.0
 12
0.266207
 22
0.090304
 32
0.0
 13
0.26311
 23
0.121283
 33
0.0
  0
SOLID
  5
3C2
  8
0
 62
     7
 10
0.266207
 20
0.090304
 30
0.0
 11
0.26311
 21
0.121283
 31
0.0
 12
0.266207
 22
0.090304
 32
0.0
 13
0.238338
 23
0.115087
 33
0.0
  0
SOLID
  5
3C3
  8
0
 62
     7
 10
0.224403
 20
0.085657
 30
0.0
 11
0.266207
 21
0.090304
 31
0.0
 12
0.224403
 22
0.085657
 32
0.0
 13
0.238338
 23
0.115087
 33
0.0
  0
SOLID
  5
3C4
  8
0
 62
     7
 10
0.224403
 20
0.085657
 30
0.0
 11
0.238338
 21
0.115087
 31
0.0
 12
0.224403
 22
0.085657
 32
0.0
 13
0.207372
 23
0.108891
 33
0.0
  0
SOLID
  5
3C5
  8
0
 62
     7
 10
0.196534
 20
0.076363
 30
0.0
 11
0.224403
 21
0.085657
 31
0.0
 12
0.196534
 22
0.076363
 32
0.0
 13
0.207372
 23
0.108891
 33
0.0
  0
SOLID
  5
3C6
  8
0
 62
     7
 10
0.196534
 20
0.076363
 30
0.0
 11
0.207372
 21
0.108891
 31
0.0
 12
0.196534
 22
0.076363
 32
0.0
 13
0.187244
 23
0.090304
 33
0.0
  0
SOLID
  5
3C7
  8
0
 62
     7
 10
0.181051
 20
0.054678
 30
0.0
 11
0.196534
 21
0.076363
 31
0.0
 12
0.181051
 22
0.054678
 32
0.0
 13
0.187244
 23
0.090304
 33
0.0
  0
SOLID
  5
3C8
  8
0
 62
     7
 10
0.148536
 20
0.197181
 30
0.0
 11
0.11757
 21
0.217317
 31
0.0
 12
0.148536
 22
0.197181
 32
0.0
 13
0.105184
 23
0.181691
 33
0.0
  0
SOLID
  5
3C9
  8
0
 62
     7
 10
0.133053
 20
0.163104
 30
0.0
 11
0.148536
 21
0.197181
 31
0.0
 12
0.133053
 22
0.163104
 32
0.0
 13
0.105184
 23
0.181691
 33
0.0
  0
SOLID
  5
3CA
  8
0
 62
     7
 10
0.133053
 20
0.163104
 30
0.0
 11
0.105184
 21
0.181691
 31
0.0
 12
0.133053
 22
0.163104
 32
0.0
 13
0.100539
 23
0.147615
 33
0.0
  0
SOLID
  5
3CB
  8
0
 62
     7
 10
0.131505
 20
0.142968
 30
0.0
 11
0.133053
 21
0.163104
 31
0.0
 12
0.131505
 22
0.142968
 32
0.0
 13
0.100539
 23
0.147615
 33
0.0
  0
SOLID
  5
3CC
  8
0
 62
     7
 10
0.131505
 20
0.142968
 30
0.0
 11
0.100539
 21
0.147615
 31
0.0
 12
0.131505
 22
0.142968
 32
0.0
 13
0.109829
 23
0.116636
 33
0.0
  0
SOLID
  5
3CD
  8
0
 62
     7
 10
0.14544
 20
0.119734
 30
0.0
 11
0.131505
 21
0.142968
 31
0.0
 12
0.14544
 22
0.119734
 32
0.0
 13
0.109829
 23
0.116636
 33
0.0
  0
SOLID
  5
3CE
  8
0
 62
     7
 10
0.14544
 20
0.119734
 30
0.0
 11
0.109829
 21
0.116636
 31
0.0
 12
0.14544
 22
0.119734
 32
0.0
 13
0.122215
 23
0.096499
 33
0.0
  0
SOLID
  5
3CF
  8
0
 62
     7
 10
0.157826
 20
0.099597
 30
0.0
 11
0.14544
 21
0.119734
 31
0.0
 12
0.157826
 22
0.099597
 32
0.0
 13
0.122215
 23
0.096499
 33
0.0
  0
SOLID
  5
3D0
  8
0
 62
     7
 10
0.157826
 20
0.099597
 30
0.0
 11
0.122215
 21
0.096499
 31
0.0
 12
0.157826
 22
0.099597
 32
0.0
 13
0.134602
 23
0.070167
 33
0.0
  0
SOLID
  5
3D1
  8
0
 62
     7
 10
0.137698
 20
0.037639
 30
0.0
 11
0.171761
 21
0.039188
 31
0.0
 12
0.137698
 22
0.037639
 32
0.0
 13
0.181051
 23
0.054678
 33
0.0
  0
SOLID
  5
3D2
  8
0
 62
     7
 10
0.134602
 20
0.070167
 30
0.0
 11
0.137698
 21
0.037639
 31
0.0
 12
0.134602
 22
0.070167
 32
0.0
 13
0.181051
 23
0.054678
 33
0.0
  0
SOLID
  5
3D3
  8
0
 62
     7
 10
0.181051
 20
0.054678
 30
0.0
 11
0.187244
 21
0.090304
 31
0.0
 12
0.181051
 22
0.054678
 32
0.0
 13
0.157826
 23
0.099597
 33
0.0
  0
SOLID
  5
3D4
  8
0
 62
     7
 10
0.134602
 20
0.070167
 30
0.0
 11
0.181051
 21
0.054678
 31
0.0
 12
0.134602
 22
0.070167
 32
0.0
 13
0.157826
 23
0.099597
 33
0.0
  0
SOLID
  5
3D5
  8
0
 62
     7
 10
0.073986
 20
0.034287
 30
0.0
 11
0.078633
 21
0.026538
 31
0.0
 12
0.073986
 22
0.034287
 32
0.0
 13
0.08483
 23
0.021889
 33
0.0
  0
SOLID
  5
3D6
  8
0
 62
     7
 10
0.055396
 20
0.035837
 30
0.0
 11
0.052298
 21
0.043586
 31
0.0
 12
0.055396
 22
0.035837
 32
0.0
 13
0.039904
 23
0.049785
 33
0.0
  0
SOLID
  5
3D7
  8
0
 62
     7
 10
0.041454
 20
0.136574
 30
0.0
 11
0.03061
 21
0.144323
 31
0.0
 12
0.041454
 22
0.136574
 32
0.0
 13
0.021315
 23
0.125725
 33
0.0
  0
SOLID
  5
3D8
  8
0
 62
     7
 10
0.070887
 20
0.057534
 30
0.0
 11
0.070887
 21
0.049785
 31
0.0
 12
0.070887
 22
0.057534
 32
0.0
 13
0.073986
 23
0.034287
 33
0.0
  0
SOLID
  5
3D9
  8
0
 62
     7
 10
0.049199
 20
0.01259
 30
0.0
 11
0.058494
 21
0.01724
 31
0.0
 12
0.049199
 22
0.01259
 32
0.0
 13
0.055396
 23
0.035837
 33
0.0
  0
SOLID
  5
3DA
  8
0
 62
     7
 10
0.025962
 20
0.020339
 30
0.0
 11
0.033708
 21
0.01569
 31
0.0
 12
0.025962
 22
0.020339
 32
0.0
 13
0.049199
 23
0.01259
 33
0.0
  0
SOLID
  5
3DB
  8
0
 62
     7
 10
0.08483
 20
0.021889
 30
0.0
 11
0.098772
 21
0.023439
 31
0.0
 12
0.08483
 22
0.021889
 32
0.0
 13
0.108067
 23
0.032737
 33
0.0
  0
SOLID
  5
3DC
  8
0
 62
     7
 10
0.002725
 20
0.051335
 30
0.0
 11
0.002725
 21
0.038937
 31
0.0
 12
0.002725
 22
0.051335
 32
0.0
 13
0.01202
 23
0.026538
 33
0.0
  0
SOLID
  5
3DD
  8
0
 62
     7
 10
0.021315
 20
0.125725
 30
0.0
 11
0.01202
 21
0.111777
 31
0.0
 12
0.021315
 22
0.125725
 32
0.0
 13
0.01202
 23
0.097829
 33
0.0
  0
SOLID
  5
3DE
  8
0
 62
     7
 10
0.10187
 20
0.083881
 30
0.0
 11
0.095674
 21
0.096279
 31
0.0
 12
0.10187
 22
0.083881
 32
0.0
 13
0.08328
 23
0.108677
 33
0.0
  0
SOLID
  5
3DF
  8
0
 62
     7
 10
0.036806
 20
0.059084
 30
0.0
 11
0.041454
 21
0.071482
 31
0.0
 12
0.036806
 22
0.059084
 32
0.0
 13
0.04765
 23
0.08853
 33
0.0
  0
SOLID
  5
3E0
  8
0
 62
     7
 10
0.108067
 20
0.032737
 30
0.0
 11
0.111165
 21
0.051335
 31
0.0
 12
0.108067
 22
0.032737
 32
0.0
 13
0.108067
 23
0.065283
 33
0.0
  0
SOLID
  5
3E1
  8
0
 62
     7
 10
0.025962
 20
0.020339
 30
0.0
 11
0.049199
 21
0.01259
 31
0.0
 12
0.025962
 22
0.020339
 32
0.0
 13
0.055396
 23
0.035837
 33
0.0
  0
SOLID
  5
3E2
  8
0
 62
     7
 10
0.025962
 20
0.020339
 30
0.0
 11
0.055396
 21
0.035837
 31
0.0
 12
0.025962
 22
0.020339
 32
0.0
 13
0.039904
 23
0.049785
 33
0.0
  0
SOLID
  5
3E3
  8
0
 62
     7
 10
0.073986
 20
0.034287
 30
0.0
 11
0.08483
 21
0.021889
 31
0.0
 12
0.073986
 22
0.034287
 32
0.0
 13
0.108067
 23
0.032737
 33
0.0
  0
SOLID
  5
3E4
  8
0
 62
     7
 10
0.01202
 20
0.026538
 30
0.0
 11
0.025962
 21
0.020339
 31
0.0
 12
0.01202
 22
0.026538
 32
0.0
 13
0.039904
 23
0.049785
 33
0.0
  0
SOLID
  5
3E5
  8
0
 62
     7
 10
0.002725
 20
0.051335
 30
0.0
 11
0.01202
 21
0.026538
 31
0.0
 12
0.002725
 22
0.051335
 32
0.0
 13
0.039904
 23
0.049785
 33
0.0
  0
SOLID
  5
3E6
  8
0
 62
     7
 10
0.002725
 20
0.051335
 30
0.0
 11
0.039904
 21
0.049785
 31
0.0
 12
0.002725
 22
0.051335
 32
0.0
 13
0.036806
 23
0.059084
 33
0.0
  0
SOLID
  5
3E7
  8
0
 62
     7
 10
0.005823
 20
0.073032
 30
0.0
 11
0.002725
 21
0.051335
 31
0.0
 12
0.005823
 22
0.073032
 32
0.0
 13
0.036806
 23
0.059084
 33
0.0
  0
SOLID
  5
3E8
  8
0
 62
     7
 10
0.063142
 20
0.127275
 30
0.0
 11
0.041454
 21
0.136574
 31
0.0
 12
0.063142
 22
0.127275
 32
0.0
 13
0.021315
 23
0.125725
 33
0.0
  0
SOLID
  5
3E9
  8
0
 62
     7
 10
0.005823
 20
0.073032
 30
0.0
 11
0.036806
 21
0.059084
 31
0.0
 12
0.005823
 22
0.073032
 32
0.0
 13
0.04765
 23
0.08853
 33
0.0
  0
SOLID
  5
3EA
  8
0
 62
     7
 10
0.01202
 20
0.097829
 30
0.0
 11
0.005823
 21
0.073032
 31
0.0
 12
0.01202
 22
0.097829
 32
0.0
 13
0.04765
 23
0.08853
 33
0.0
  0
SOLID
  5
3EB
  8
0
 62
     7
 10
0.01202
 20
0.097829
 30
0.0
 11
0.04765
 21
0.08853
 31
0.0
 12
0.01202
 22
0.097829
 32
0.0
 13
0.052298
 23
0.09008
 33
0.0
  0
SOLID
  5
3EC
  8
0
 62
     7
 10
0.070887
 20
0.057534
 30
0.0
 11
0.073986
 21
0.034287
 31
0.0
 12
0.070887
 22
0.057534
 32
0.0
 13
0.108067
 23
0.032737
 33
0.0
  0
SOLID
  5
3ED
  8
0
 62
     7
 10
0.070887
 20
0.057534
 30
0.0
 11
0.108067
 21
0.032737
 31
0.0
 12
0.070887
 22
0.057534
 32
0.0
 13
0.108067
 23
0.065283
 33
0.0
  0
SOLID
  5
3EE
  8
0
 62
     7
 10
0.067789
 20
0.068383
 30
0.0
 11
0.070887
 21
0.057534
 31
0.0
 12
0.067789
 22
0.068383
 32
0.0
 13
0.108067
 23
0.065283
 33
0.0
  0
SOLID
  5
3EF
  8
0
 62
     7
 10
0.067789
 20
0.068383
 30
0.0
 11
0.108067
 21
0.065283
 31
0.0
 12
0.067789
 22
0.068383
 32
0.0
 13
0.10187
 23
0.083881
 33
0.0
  0
SOLID
  5
3F0
  8
0
 62
     7
 10
0.061592
 20
0.082331
 30
0.0
 11
0.067789
 21
0.068383
 31
0.0
 12
0.061592
 22
0.082331
 32
0.0
 13
0.10187
 23
0.083881
 33
0.0
  0
SOLID
  5
3F1
  8
0
 62
     7
 10
0.061592
 20
0.082331
 30
0.0
 11
0.10187
 21
0.083881
 31
0.0
 12
0.061592
 22
0.082331
 32
0.0
 13
0.08328
 23
0.108677
 33
0.0
  0
SOLID
  5
3F2
  8
0
 62
     7
 10
0.052298
 20
0.09008
 30
0.0
 11
0.061592
 21
0.082331
 31
0.0
 12
0.052298
 22
0.09008
 32
0.0
 13
0.08328
 23
0.108677
 33
0.0
  0
SOLID
  5
3F3
  8
0
 62
     7
 10
0.052298
 20
0.09008
 30
0.0
 11
0.08328
 21
0.108677
 31
0.0
 12
0.052298
 22
0.09008
 32
0.0
 13
0.063142
 23
0.127275
 33
0.0
  0
SOLID
  5
3F4
  8
0
 62
     7
 10
0.052298
 20
0.09008
 30
0.0
 11
0.063142
 21
0.127275
 31
0.0
 12
0.052298
 22
0.09008
 32
0.0
 13
0.021315
 23
0.125725
 33
0.0
  0
SOLID
  5
3F5
  8
0
 62
     7
 10
0.01202
 20
0.097829
 30
0.0
 11
0.052298
 21
0.09008
 31
0.0
 12
0.01202
 22
0.097829
 32
0.0
 13
0.021315
 23
0.125725
 33
0.0
  0
SOLID
  5
3F6
  8
0
 62
     7
 10
0.078633
 20
0.210964
 30
0.0
 11
0.075535
 21
0.214063
 31
0.0
 12
0.078633
 22
0.210964
 32
0.0
 13
0.067789
 23
0.220262
 33
0.0
  0
SOLID
  5
3F7
  8
0
 62
     7
 10
0.053847
 20
0.421735
 30
0.0
 11
0.043003
 21
0.427935
 31
0.0
 12
0.053847
 22
0.421735
 32
0.0
 13
0.035257
 23
0.417086
 33
0.0
  0
SOLID
  5
3F8
  8
0
 62
     7
 10
0.035257
 20
0.417086
 30
0.0
 11
0.02906
 21
0.407787
 31
0.0
 12
0.035257
 22
0.417086
 32
0.0
 13
0.022864
 23
0.395389
 33
0.0
  0
SOLID
  5
3F9
  8
0
 62
     7
 10
0.004274
 20
0.31325
 30
0.0
 11
0.004274
 21
0.300852
 31
0.0
 12
0.004274
 22
0.31325
 32
0.0
 13
0.008922
 23
0.285354
 33
0.0
  0
SOLID
  5
3FA
  8
0
 62
     7
 10
0.070887
 20
0.398489
 30
0.0
 11
0.064691
 21
0.413987
 31
0.0
 12
0.070887
 22
0.398489
 32
0.0
 13
0.053847
 23
0.421735
 33
0.0
  0
SOLID
  5
3FB
  8
0
 62
     7
 10
0.013569
 20
0.365943
 30
0.0
 11
0.007372
 21
0.355094
 31
0.0
 12
0.013569
 22
0.365943
 32
0.0
 13
0.004274
 23
0.338047
 33
0.0
  0
SOLID
  5
3FC
  8
0
 62
     7
 10
0.046101
 20
0.178418
 30
0.0
 11
0.061592
 21
0.15982
 31
0.0
 12
0.046101
 22
0.178418
 32
0.0
 13
0.073986
 23
0.16602
 33
0.0
  0
SOLID
  5
3FD
  8
0
 62
     7
 10
0.061592
 20
0.367493
 30
0.0
 11
0.067789
 21
0.382991
 31
0.0
 12
0.061592
 22
0.367493
 32
0.0
 13
0.070887
 23
0.398489
 33
0.0
  0
SOLID
  5
3FE
  8
0
 62
     7
 10
0.061592
 20
0.259007
 30
0.0
 11
0.055396
 21
0.274505
 31
0.0
 12
0.061592
 22
0.259007
 32
0.0
 13
0.043003
 23
0.288453
 33
0.0
  0
SOLID
  5
3FF
  8
0
 62
     7
 10
0.08328
 20
0.187717
 30
0.0
 11
0.078633
 21
0.210964
 31
0.0
 12
0.08328
 22
0.187717
 32
0.0
 13
0.067789
 23
0.220262
 33
0.0
  0
SOLID
  5
400
  8
0
 62
     7
 10
0.041454
 20
0.184617
 30
0.0
 11
0.046101
 21
0.178418
 31
0.0
 12
0.041454
 22
0.184617
 32
0.0
 13
0.073986
 23
0.16602
 33
0.0
  0
SOLID
  5
401
  8
0
 62
     7
 10
0.070887
 20
0.398489
 30
0.0
 11
0.053847
 21
0.421735
 31
0.0
 12
0.070887
 22
0.398489
 32
0.0
 13
0.035257
 23
0.417086
 33
0.0
  0
SOLID
  5
402
  8
0
 62
     7
 10
0.035257
 20
0.417086
 30
0.0
 11
0.022864
 21
0.395389
 31
0.0
 12
0.035257
 22
0.417086
 32
0.0
 13
0.019766
 23
0.379891
 33
0.0
  0
SOLID
  5
403
  8
0
 62
     7
 10
0.015118
 20
0.24196
 30
0.0
 11
0.01202
 21
0.226462
 31
0.0
 12
0.015118
 22
0.24196
 32
0.0
 13
0.022864
 23
0.201665
 33
0.0
  0
SOLID
  5
404
  8
0
 62
     7
 10
0.041454
 20
0.184617
 30
0.0
 11
0.073986
 21
0.16602
 31
0.0
 12
0.041454
 22
0.184617
 32
0.0
 13
0.08328
 23
0.187717
 33
0.0
  0
SOLID
  5
405
  8
0
 62
     7
 10
0.061592
 20
0.259007
 30
0.0
 11
0.043003
 21
0.288453
 31
0.0
 12
0.061592
 22
0.259007
 32
0.0
 13
0.038355
 23
0.294652
 33
0.0
  0
SOLID
  5
406
  8
0
 62
     7
 10
0.004274
 20
0.31325
 30
0.0
 11
0.008922
 21
0.285354
 31
0.0
 12
0.004274
 22
0.31325
 32
0.0
 13
0.013569
 23
0.271406
 33
0.0
  0
SOLID
  5
407
  8
0
 62
     7
 10
0.036806
 20
0.331847
 30
0.0
 11
0.052298
 21
0.351995
 31
0.0
 12
0.036806
 22
0.331847
 32
0.0
 13
0.061592
 23
0.367493
 33
0.0
  0
SOLID
  5
408
  8
0
 62
     7
 10
0.041454
 20
0.184617
 30
0.0
 11
0.08328
 21
0.187717
 31
0.0
 12
0.041454
 22
0.184617
 32
0.0
 13
0.067789
 23
0.220262
 33
0.0
  0
SOLID
  5
409
  8
0
 62
     7
 10
0.019766
 20
0.379891
 30
0.0
 11
0.013569
 21
0.365943
 31
0.0
 12
0.019766
 22
0.379891
 32
0.0
 13
0.004274
 23
0.338047
 33
0.0
  0
SOLID
  5
40A
  8
0
 62
     7
 10
0.022864
 20
0.201665
 30
0.0
 11
0.041454
 21
0.184617
 31
0.0
 12
0.022864
 22
0.201665
 32
0.0
 13
0.067789
 23
0.220262
 33
0.0
  0
SOLID
  5
40B
  8
0
 62
     7
 10
0.022864
 20
0.201665
 30
0.0
 11
0.067789
 21
0.220262
 31
0.0
 12
0.022864
 22
0.201665
 32
0.0
 13
0.061592
 23
0.234211
 33
0.0
  0
SOLID
  5
40C
  8
0
 62
     7
 10
0.015118
 20
0.24196
 30
0.0
 11
0.022864
 21
0.201665
 31
0.0
 12
0.015118
 22
0.24196
 32
0.0
 13
0.061592
 23
0.234211
 33
0.0
  0
SOLID
  5
40D
  8
0
 62
     7
 10
0.015118
 20
0.24196
 30
0.0
 11
0.061592
 21
0.234211
 31
0.0
 12
0.015118
 22
0.24196
 32
0.0
 13
0.061592
 23
0.259007
 33
0.0
  0
SOLID
  5
40E
  8
0
 62
     7
 10
0.015118
 20
0.257457
 30
0.0
 11
0.015118
 21
0.24196
 31
0.0
 12
0.015118
 22
0.257457
 32
0.0
 13
0.061592
 23
0.259007
 33
0.0
  0
SOLID
  5
40F
  8
0
 62
     7
 10
0.015118
 20
0.257457
 30
0.0
 11
0.061592
 21
0.259007
 31
0.0
 12
0.015118
 22
0.257457
 32
0.0
 13
0.038355
 23
0.294652
 33
0.0
  0
SOLID
  5
410
  8
0
 62
     7
 10
0.013569
 20
0.271406
 30
0.0
 11
0.015118
 21
0.257457
 31
0.0
 12
0.013569
 22
0.271406
 32
0.0
 13
0.038355
 23
0.294652
 33
0.0
  0
SOLID
  5
411
  8
0
 62
     7
 10
0.004274
 20
0.31325
 30
0.0
 11
0.013569
 21
0.271406
 31
0.0
 12
0.004274
 22
0.31325
 32
0.0
 13
0.038355
 23
0.294652
 33
0.0
  0
SOLID
  5
412
  8
0
 62
     7
 10
0.004274
 20
0.31325
 30
0.0
 11
0.038355
 21
0.294652
 31
0.0
 12
0.004274
 22
0.31325
 32
0.0
 13
0.032159
 23
0.317899
 33
0.0
  0
SOLID
  5
413
  8
0
 62
     7
 10
0.004274
 20
0.338047
 30
0.0
 11
0.004274
 21
0.31325
 31
0.0
 12
0.004274
 22
0.338047
 32
0.0
 13
0.032159
 23
0.317899
 33
0.0
  0
SOLID
  5
414
  8
0
 62
     7
 10
0.004274
 20
0.338047
 30
0.0
 11
0.032159
 21
0.317899
 31
0.0
 12
0.004274
 22
0.338047
 32
0.0
 13
0.036806
 23
0.331847
 33
0.0
  0
SOLID
  5
415
  8
0
 62
     7
 10
0.019766
 20
0.379891
 30
0.0
 11
0.004274
 21
0.338047
 31
0.0
 12
0.019766
 22
0.379891
 32
0.0
 13
0.036806
 23
0.331847
 33
0.0
  0
SOLID
  5
416
  8
0
 62
     7
 10
0.019766
 20
0.379891
 30
0.0
 11
0.036806
 21
0.331847
 31
0.0
 12
0.019766
 22
0.379891
 32
0.0
 13
0.061592
 23
0.367493
 33
0.0
  0
SOLID
  5
417
  8
0
 62
     7
 10
0.019766
 20
0.379891
 30
0.0
 11
0.061592
 21
0.367493
 31
0.0
 12
0.019766
 22
0.379891
 32
0.0
 13
0.070887
 23
0.398489
 33
0.0
  0
SOLID
  5
418
  8
0
 62
     7
 10
0.019766
 20
0.379891
 30
0.0
 11
0.070887
 21
0.398489
 31
0.0
 12
0.019766
 22
0.379891
 32
0.0
 13
0.035257
 23
0.417086
 33
0.0
  0
SOLID
  5
419
  8
0
 62
     7
 10
0.255369
 20
0.304058
 30
0.0
 11
0.249176
 21
0.304058
 31
0.0
 12
0.255369
 22
0.304058
 32
0.0
 13
0.236789
 23
0.294765
 33
0.0
  0
SOLID
  5
41A
  8
0
 62
     7
 10
0.269304
 20
0.234356
 30
0.0
 11
0.2724
 21
0.223513
 31
0.0
 12
0.269304
 22
0.234356
 32
0.0
 13
0.289432
 23
0.220415
 33
0.0
  0
SOLID
  5
41B
  8
0
 62
     7
 10
0.269304
 20
0.234356
 30
0.0
 11
0.289432
 21
0.220415
 31
0.0
 12
0.269304
 22
0.234356
 32
0.0
 13
0.29098
 23
0.246747
 33
0.0
  0
SOLID
  5
41C
  8
0
 62
     7
 10
0.255369
 20
0.304058
 30
0.0
 11
0.236789
 21
0.294765
 31
0.0
 12
0.255369
 22
0.304058
 32
0.0
 13
0.236789
 23
0.283922
 33
0.0
  0
SOLID
  5
41D
  8
0
 62
     7
 10
0.260014
 20
0.248296
 30
0.0
 11
0.269304
 21
0.234356
 31
0.0
 12
0.260014
 22
0.248296
 32
0.0
 13
0.29098
 23
0.246747
 33
0.0
  0
SOLID
  5
41E
  8
0
 62
     7
 10
0.260014
 20
0.248296
 30
0.0
 11
0.29098
 21
0.246747
 31
0.0
 12
0.260014
 22
0.248296
 32
0.0
 13
0.289432
 23
0.266884
 33
0.0
  0
SOLID
  5
41F
  8
0
 62
     7
 10
0.289432
 20
0.266884
 30
0.0
 11
0.283238
 21
0.280824
 31
0.0
 12
0.289432
 22
0.266884
 32
0.0
 13
0.270852
 23
0.297862
 33
0.0
  0
SOLID
  5
420
  8
0
 62
     7
 10
0.270852
 20
0.297862
 30
0.0
 11
0.255369
 21
0.304058
 31
0.0
 12
0.270852
 22
0.297862
 32
0.0
 13
0.236789
 23
0.283922
 33
0.0
  0
SOLID
  5
421
  8
0
 62
     7
 10
0.253821
 20
0.25759
 30
0.0
 11
0.260014
 21
0.248296
 31
0.0
 12
0.253821
 22
0.25759
 32
0.0
 13
0.289432
 23
0.266884
 33
0.0
  0
SOLID
  5
422
  8
0
 62
     7
 10
0.253821
 20
0.25759
 30
0.0
 11
0.289432
 21
0.266884
 31
0.0
 12
0.253821
 22
0.25759
 32
0.0
 13
0.270852
 23
0.297862
 33
0.0
  0
SOLID
  5
423
  8
0
 62
     7
 10
0.253821
 20
0.25759
 30
0.0
 11
0.270852
 21
0.297862
 31
0.0
 12
0.253821
 22
0.25759
 32
0.0
 13
0.236789
 23
0.283922
 33
0.0
  0
SOLID
  5
424
  8
0
 62
     7
 10
0.194985
 20
0.129027
 30
0.0
 11
0.205823
 21
0.135223
 31
0.0
 12
0.194985
 22
0.129027
 32
0.0
 13
0.210468
 23
0.147615
 33
0.0
  0
SOLID
  5
425
  8
0
 62
     7
 10
0.171761
 20
0.136772
 30
0.0
 11
0.181051
 21
0.130576
 31
0.0
 12
0.171761
 22
0.136772
 32
0.0
 13
0.194985
 23
0.129027
 33
0.0
  0
SOLID
  5
426
  8
0
 62
     7
 10
0.181051
 20
0.180143
 30
0.0
 11
0.162471
 21
0.1693
 31
0.0
 12
0.181051
 22
0.180143
 32
0.0
 13
0.167116
 23
0.152261
 33
0.0
  0
SOLID
  5
427
  8
0
 62
     7
 10
0.167116
 20
0.152261
 30
0.0
 11
0.171761
 21
0.136772
 31
0.0
 12
0.167116
 22
0.152261
 32
0.0
 13
0.194985
 23
0.129027
 33
0.0
  0
SOLID
  5
428
  8
0
 62
     7
 10
0.167116
 20
0.152261
 30
0.0
 11
0.194985
 21
0.129027
 31
0.0
 12
0.167116
 22
0.152261
 32
0.0
 13
0.210468
 23
0.147615
 33
0.0
  0
SOLID
  5
429
  8
0
 62
     7
 10
0.210468
 20
0.147615
 30
0.0
 11
0.207372
 21
0.170849
 31
0.0
 12
0.210468
 22
0.147615
 32
0.0
 13
0.181051
 23
0.180143
 33
0.0
  0
SOLID
  5
42A
  8
0
 62
     7
 10
0.167116
 20
0.152261
 30
0.0
 11
0.210468
 21
0.147615
 31
0.0
 12
0.167116
 22
0.152261
 32
0.0
 13
0.181051
 23
0.180143
 33
0.0
  0
SOLID
  5
42B
  8
0
 62
     7
 10
0.315652
 20
0.144323
 30
0.0
 11
0.323398
 21
0.136574
 31
0.0
 12
0.315652
 22
0.144323
 32
0.0
 13
0.328045
 23
0.145872
 33
0.0
  0
SOLID
  5
42C
  8
0
 62
     7
 10
0.258334
 20
0.16137
 30
0.0
 11
0.262981
 21
0.148972
 31
0.0
 12
0.258334
 22
0.16137
 32
0.0
 13
0.276923
 23
0.152072
 33
0.0
  0
SOLID
  5
42D
  8
0
 62
     7
 10
0.304808
 20
0.148972
 30
0.0
 11
0.315652
 21
0.144323
 31
0.0
 12
0.304808
 22
0.148972
 32
0.0
 13
0.328045
 23
0.145872
 33
0.0
  0
SOLID
  5
42E
  8
0
 62
     7
 10
0.328045
 20
0.145872
 30
0.0
 11
0.328045
 21
0.16447
 31
0.0
 12
0.328045
 22
0.145872
 32
0.0
 13
0.324947
 23
0.169119
 33
0.0
  0
SOLID
  5
42F
  8
0
 62
     7
 10
0.28312
 20
0.192366
 30
0.0
 11
0.267628
 21
0.187717
 31
0.0
 12
0.28312
 22
0.192366
 32
0.0
 13
0.261432
 23
0.179968
 33
0.0
  0
SOLID
  5
430
  8
0
 62
     7
 10
0.309455
 20
0.189267
 30
0.0
 11
0.295513
 21
0.193916
 31
0.0
 12
0.309455
 22
0.189267
 32
0.0
 13
0.28312
 23
0.192366
 33
0.0
  0
SOLID
  5
431
  8
0
 62
     7
 10
0.304808
 20
0.148972
 30
0.0
 11
0.328045
 21
0.145872
 31
0.0
 12
0.304808
 22
0.148972
 32
0.0
 13
0.324947
 23
0.169119
 33
0.0
  0
SOLID
  5
432
  8
0
 62
     7
 10
0.261432
 20
0.179968
 30
0.0
 11
0.258334
 21
0.16137
 31
0.0
 12
0.261432
 22
0.179968
 32
0.0
 13
0.276923
 23
0.152072
 33
0.0
  0
SOLID
  5
433
  8
0
 62
     7
 10
0.292415
 20
0.152072
 30
0.0
 11
0.304808
 21
0.148972
 31
0.0
 12
0.292415
 22
0.152072
 32
0.0
 13
0.324947
 23
0.169119
 33
0.0
  0
SOLID
  5
434
  8
0
 62
     7
 10
0.28312
 20
0.192366
 30
0.0
 11
0.261432
 21
0.179968
 31
0.0
 12
0.28312
 22
0.192366
 32
0.0
 13
0.276923
 23
0.152072
 33
0.0
  0
SOLID
  5
435
  8
0
 62
     7
 10
0.292415
 20
0.152072
 30
0.0
 11
0.324947
 21
0.169119
 31
0.0
 12
0.292415
 22
0.152072
 32
0.0
 13
0.309455
 23
0.189267
 33
0.0
  0
SOLID
  5
436
  8
0
 62
     7
 10
0.292415
 20
0.152072
 30
0.0
 11
0.309455
 21
0.189267
 31
0.0
 12
0.292415
 22
0.152072
 32
0.0
 13
0.28312
 23
0.192366
 33
0.0
  0
SOLID
  5
437
  8
0
 62
     7
 10
0.292415
 20
0.152072
 30
0.0
 11
0.28312
 21
0.192366
 31
0.0
 12
0.292415
 22
0.152072
 32
0.0
 13
0.276923
 23
0.152072
 33
0.0
  0
SOLID
  5
438
  8
0
 62
     7
 10
0.365298
 20
0.664963
 30
0.0
 11
0.374588
 21
0.658767
 31
0.0
 12
0.365298
 22
0.664963
 32
0.0
 13
0.385426
 23
0.663414
 33
0.0
  0
SOLID
  5
439
  8
0
 62
     7
 10
0.332784
 20
0.671159
 30
0.0
 11
0.340525
 21
0.661865
 31
0.0
 12
0.332784
 22
0.671159
 32
0.0
 13
0.352912
 23
0.666512
 33
0.0
  0
SOLID
  5
43A
  8
0
 62
     7
 10
0.377684
 20
0.7579
 30
0.0
 11
0.359105
 21
0.753253
 31
0.0
 12
0.377684
 22
0.7579
 32
0.0
 13
0.356008
 23
0.745508
 33
0.0
  0
SOLID
  5
43B
  8
0
 62
     7
 10
0.365298
 20
0.664963
 30
0.0
 11
0.385426
 21
0.663414
 31
0.0
 12
0.365298
 22
0.664963
 32
0.0
 13
0.380781
 23
0.686648
 33
0.0
  0
SOLID
  5
43C
  8
0
 62
     7
 10
0.356008
 20
0.745508
 30
0.0
 11
0.337429
 21
0.736214
 31
0.0
 12
0.356008
 22
0.745508
 32
0.0
 13
0.334332
 23
0.726921
 33
0.0
  0
SOLID
  5
43D
  8
0
 62
     7
 10
0.365298
 20
0.664963
 30
0.0
 11
0.380781
 21
0.686648
 31
0.0
 12
0.365298
 22
0.664963
 32
0.0
 13
0.37304
 23
0.692844
 33
0.0
  0
SOLID
  5
43E
  8
0
 62
     7
 10
0.394716
 20
0.731568
 30
0.0
 11
0.388523
 21
0.754802
 31
0.0
 12
0.394716
 22
0.731568
 32
0.0
 13
0.377684
 23
0.7579
 33
0.0
  0
SOLID
  5
43F
  8
0
 62
     7
 10
0.332784
 20
0.671159
 30
0.0
 11
0.352912
 21
0.666512
 31
0.0
 12
0.332784
 22
0.671159
 32
0.0
 13
0.365298
 23
0.664963
 33
0.0
  0
SOLID
  5
440
  8
0
 62
     7
 10
0.331236
 20
0.706784
 30
0.0
 11
0.328139
 21
0.694393
 31
0.0
 12
0.331236
 22
0.706784
 32
0.0
 13
0.332784
 23
0.671159
 33
0.0
  0
SOLID
  5
441
  8
0
 62
     7
 10
0.365298
 20
0.664963
 30
0.0
 11
0.37304
 21
0.692844
 31
0.0
 12
0.365298
 22
0.664963
 32
0.0
 13
0.36375
 23
0.702138
 33
0.0
  0
SOLID
  5
442
  8
0
 62
     7
 10
0.394716
 20
0.731568
 30
0.0
 11
0.377684
 21
0.7579
 31
0.0
 12
0.394716
 22
0.731568
 32
0.0
 13
0.356008
 23
0.745508
 33
0.0
  0
SOLID
  5
443
  8
0
 62
     7
 10
0.36375
 20
0.702138
 30
0.0
 11
0.386974
 21
0.714529
 31
0.0
 12
0.36375
 22
0.702138
 32
0.0
 13
0.394716
 23
0.731568
 33
0.0
  0
SOLID
  5
444
  8
0
 62
     7
 10
0.332784
 20
0.671159
 30
0.0
 11
0.365298
 21
0.664963
 31
0.0
 12
0.332784
 22
0.671159
 32
0.0
 13
0.36375
 23
0.702138
 33
0.0
  0
SOLID
  5
445
  8
0
 62
     7
 10
0.331236
 20
0.706784
 30
0.0
 11
0.332784
 21
0.671159
 31
0.0
 12
0.331236
 22
0.706784
 32
0.0
 13
0.36375
 23
0.702138
 33
0.0
  0
SOLID
  5
446
  8
0
 62
     7
 10
0.334332
 20
0.726921
 30
0.0
 11
0.331236
 21
0.706784
 31
0.0
 12
0.334332
 22
0.726921
 32
0.0
 13
0.36375
 23
0.702138
 33
0.0
  0
SOLID
  5
447
  8
0
 62
     7
 10
0.36375
 20
0.702138
 30
0.0
 11
0.394716
 21
0.731568
 31
0.0
 12
0.36375
 22
0.702138
 32
0.0
 13
0.356008
 23
0.745508
 33
0.0
  0
SOLID
  5
448
  8
0
 62
     7
 10
0.334332
 20
0.726921
 30
0.0
 11
0.36375
 21
0.702138
 31
0.0
 12
0.334332
 22
0.726921
 32
0.0
 13
0.356008
 23
0.745508
 33
0.0
  0
SOLID
  5
449
  8
0
 62
     7
 10
0.523224
 20
0.350527
 30
0.0
 11
0.517031
 21
0.342782
 31
0.0
 12
0.523224
 22
0.350527
 32
0.0
 13
0.513935
 23
0.335037
 33
0.0
  0
SOLID
  5
44A
  8
0
 62
     7
 10
0.479872
 20
0.204926
 30
0.0
 11
0.482969
 21
0.194083
 31
0.0
 12
0.479872
 22
0.204926
 32
0.0
 13
0.492259
 23
0.186338
 33
0.0
  0
SOLID
  5
44B
  8
0
 62
     7
 10
0.524773
 20
0.616945
 30
0.0
 11
0.512386
 21
0.626239
 31
0.0
 12
0.524773
 22
0.616945
 32
0.0
 13
0.501548
 23
0.613848
 33
0.0
  0
SOLID
  5
44C
  8
0
 62
     7
 10
0.620767
 20
0.19873
 30
0.0
 11
0.63625
 21
0.197181
 31
0.0
 12
0.620767
 22
0.19873
 32
0.0
 13
0.639347
 23
0.217317
 33
0.0
  0
SOLID
  5
44D
  8
0
 62
     7
 10
0.538707
 20
0.34588
 30
0.0
 11
0.523224
 21
0.350527
 31
0.0
 12
0.538707
 22
0.34588
 32
0.0
 13
0.513935
 23
0.335037
 33
0.0
  0
SOLID
  5
44E
  8
0
 62
     7
 10
0.450454
 20
0.556537
 30
0.0
 11
0.444261
 21
0.544145
 31
0.0
 12
0.450454
 22
0.556537
 32
0.0
 13
0.450454
 23
0.528656
 33
0.0
  0
SOLID
  5
44F
  8
0
 62
     7
 10
0.513935
 20
0.335037
 30
0.0
 11
0.504645
 21
0.325743
 31
0.0
 12
0.513935
 22
0.335037
 32
0.0
 13
0.501548
 23
0.308705
 33
0.0
  0
SOLID
  5
450
  8
0
 62
     7
 10
0.492259
 20
0.186338
 30
0.0
 11
0.504645
 21
0.184789
 31
0.0
 12
0.492259
 22
0.186338
 32
0.0
 13
0.512386
 23
0.208024
 33
0.0
  0
SOLID
  5
451
  8
0
 62
     7
 10
0.569673
 20
0.559634
 30
0.0
 11
0.561932
 21
0.568928
 31
0.0
 12
0.569673
 22
0.559634
 32
0.0
 13
0.547997
 23
0.579771
 33
0.0
  0
SOLID
  5
452
  8
0
 62
     7
 10
0.786435
 20
0.446561
 30
0.0
 11
0.783338
 21
0.452757
 31
0.0
 12
0.786435
 22
0.446561
 32
0.0
 13
0.761662
 23
0.465149
 33
0.0
  0
SOLID
  5
453
  8
0
 62
     7
 10
0.608381
 20
0.211121
 30
0.0
 11
0.620767
 21
0.19873
 31
0.0
 12
0.608381
 22
0.211121
 32
0.0
 13
0.639347
 23
0.217317
 33
0.0
  0
SOLID
  5
454
  8
0
 62
     7
 10
0.478324
 20
0.572026
 30
0.0
 11
0.467486
 21
0.567379
 31
0.0
 12
0.478324
 22
0.572026
 32
0.0
 13
0.450454
 23
0.556537
 33
0.0
  0
SOLID
  5
455
  8
0
 62
     7
 10
0.479872
 20
0.204926
 30
0.0
 11
0.492259
 21
0.186338
 31
0.0
 12
0.479872
 22
0.204926
 32
0.0
 13
0.512386
 23
0.208024
 33
0.0
  0
SOLID
  5
456
  8
0
 62
     7
 10
0.574318
 20
0.251394
 30
0.0
 11
0.589801
 21
0.234356
 31
0.0
 12
0.574318
 22
0.251394
 32
0.0
 13
0.597543
 23
0.22816
 33
0.0
  0
SOLID
  5
457
  8
0
 62
     7
 10
0.620767
 20
0.384603
 30
0.0
 11
0.608381
 21
0.369114
 31
0.0
 12
0.620767
 22
0.384603
 32
0.0
 13
0.605284
 23
0.355173
 33
0.0
  0
SOLID
  5
458
  8
0
 62
     7
 10
0.609929
 20
0.438817
 30
0.0
 11
0.616122
 21
0.417131
 31
0.0
 12
0.609929
 22
0.438817
 32
0.0
 13
0.620767
 23
0.406289
 33
0.0
  0
SOLID
  5
459
  8
0
 62
     7
 10
0.482969
 20
0.226611
 30
0.0
 11
0.479872
 21
0.204926
 31
0.0
 12
0.482969
 22
0.226611
 32
0.0
 13
0.512386
 23
0.208024
 33
0.0
  0
SOLID
  5
45A
  8
0
 62
     7
 10
0.482969
 20
0.226611
 30
0.0
 11
0.512386
 21
0.208024
 31
0.0
 12
0.482969
 22
0.226611
 32
0.0
 13
0.513935
 23
0.226611
 33
0.0
  0
SOLID
  5
45B
  8
0
 62
     7
 10
0.482969
 20
0.232807
 30
0.0
 11
0.482969
 21
0.226611
 31
0.0
 12
0.482969
 22
0.232807
 32
0.0
 13
0.513935
 23
0.226611
 33
0.0
  0
SOLID
  5
45C
  8
0
 62
     7
 10
0.63625
 20
0.502323
 30
0.0
 11
0.63625
 21
0.517813
 31
0.0
 12
0.63625
 22
0.502323
 32
0.0
 13
0.623864
 23
0.534851
 33
0.0
  0
SOLID
  5
45D
  8
0
 62
     7
 10
0.504645
 20
0.294765
 30
0.0
 11
0.498452
 21
0.283922
 31
0.0
 12
0.504645
 22
0.294765
 32
0.0
 13
0.492259
 23
0.262237
 33
0.0
  0
SOLID
  5
45E
  8
0
 62
     7
 10
0.501548
 20
0.613848
 30
0.0
 11
0.495355
 21
0.593711
 31
0.0
 12
0.501548
 22
0.613848
 32
0.0
 13
0.492259
 23
0.579771
 33
0.0
  0
SOLID
  5
45F
  8
0
 62
     7
 10
0.530966
 20
0.534851
 30
0.0
 11
0.549546
 21
0.525558
 31
0.0
 12
0.530966
 22
0.534851
 32
0.0
 13
0.56348
 23
0.519362
 33
0.0
  0
SOLID
  5
460
  8
0
 62
     7
 10
0.651733
 20
0.355173
 30
0.0
 11
0.662571
 21
0.384603
 31
0.0
 12
0.651733
 22
0.355173
 32
0.0
 13
0.66412
 23
0.38925
 33
0.0
  0
SOLID
  5
461
  8
0
 62
     7
 10
0.698182
 20
0.403191
 30
0.0
 11
0.716762
 21
0.415582
 31
0.0
 12
0.698182
 22
0.403191
 32
0.0
 13
0.7276
 23
0.424876
 33
0.0
  0
SOLID
  5
462
  8
0
 62
     7
 10
0.695086
 20
0.451208
 30
0.0
 11
0.676506
 21
0.446561
 31
0.0
 12
0.695086
 22
0.451208
 32
0.0
 13
0.659475
 23
0.441914
 33
0.0
  0
SOLID
  5
463
  8
0
 62
     7
 10
0.623864
 20
0.534851
 30
0.0
 11
0.608381
 21
0.544145
 31
0.0
 12
0.623864
 22
0.534851
 32
0.0
 13
0.589801
 23
0.550341
 33
0.0
  0
SOLID
  5
464
  8
0
 62
     7
 10
0.752373
 20
0.426425
 30
0.0
 11
0.777145
 21
0.420229
 31
0.0
 12
0.752373
 22
0.426425
 32
0.0
 13
0.786435
 23
0.446561
 33
0.0
  0
SOLID
  5
465
  8
0
 62
     7
 10
0.450454
 20
0.556537
 30
0.0
 11
0.450454
 21
0.528656
 31
0.0
 12
0.450454
 22
0.556537
 32
0.0
 13
0.470582
 23
0.52246
 33
0.0
  0
SOLID
  5
466
  8
0
 62
     7
 10
0.752373
 20
0.426425
 30
0.0
 11
0.786435
 21
0.446561
 31
0.0
 12
0.752373
 22
0.426425
 32
0.0
 13
0.761662
 23
0.465149
 33
0.0
  0
SOLID
  5
467
  8
0
 62
     7
 10
0.752373
 20
0.426425
 30
0.0
 11
0.761662
 21
0.465149
 31
0.0
 12
0.752373
 22
0.426425
 32
0.0
 13
0.741534
 23
0.458953
 33
0.0
  0
SOLID
  5
468
  8
0
 62
     7
 10
0.7276
 20
0.424876
 30
0.0
 11
0.752373
 21
0.426425
 31
0.0
 12
0.7276
 22
0.424876
 32
0.0
 13
0.741534
 23
0.458953
 33
0.0
  0
SOLID
  5
469
  8
0
 62
     7
 10
0.7276
 20
0.424876
 30
0.0
 11
0.741534
 21
0.458953
 31
0.0
 12
0.7276
 22
0.424876
 32
0.0
 13
0.719858
 23
0.452757
 33
0.0
  0
SOLID
  5
46A
  8
0
 62
     7
 10
0.513935
 20
0.335037
 30
0.0
 11
0.501548
 21
0.308705
 31
0.0
 12
0.513935
 22
0.335037
 32
0.0
 13
0.504645
 23
0.294765
 33
0.0
  0
SOLID
  5
46B
  8
0
 62
     7
 10
0.492259
 20
0.262237
 30
0.0
 11
0.482969
 21
0.232807
 31
0.0
 12
0.492259
 22
0.262237
 32
0.0
 13
0.513935
 23
0.226611
 33
0.0
  0
SOLID
  5
46C
  8
0
 62
     7
 10
0.492259
 20
0.262237
 30
0.0
 11
0.513935
 21
0.226611
 31
0.0
 12
0.492259
 22
0.262237
 32
0.0
 13
0.520128
 23
0.252943
 33
0.0
  0
SOLID
  5
46D
  8
0
 62
     7
 10
0.7276
 20
0.424876
 30
0.0
 11
0.719858
 21
0.452757
 31
0.0
 12
0.7276
 22
0.424876
 32
0.0
 13
0.695086
 23
0.451208
 33
0.0
  0
SOLID
  5
46E
  8
0
 62
     7
 10
0.597543
 20
0.22816
 30
0.0
 11
0.608381
 21
0.211121
 31
0.0
 12
0.597543
 22
0.22816
 32
0.0
 13
0.639347
 23
0.217317
 33
0.0
  0
SOLID
  5
46F
  8
0
 62
     7
 10
0.597543
 20
0.22816
 30
0.0
 11
0.639347
 21
0.217317
 31
0.0
 12
0.597543
 22
0.22816
 32
0.0
 13
0.620767
 23
0.25759
 33
0.0
  0
SOLID
  5
470
  8
0
 62
     7
 10
0.557287
 20
0.335037
 30
0.0
 11
0.538707
 21
0.34588
 31
0.0
 12
0.557287
 22
0.335037
 32
0.0
 13
0.513935
 23
0.335037
 33
0.0
  0
SOLID
  5
471
  8
0
 62
     7
 10
0.504645
 20
0.294765
 30
0.0
 11
0.492259
 21
0.262237
 31
0.0
 12
0.504645
 22
0.294765
 32
0.0
 13
0.520128
 23
0.252943
 33
0.0
  0
SOLID
  5
472
  8
0
 62
     7
 10
0.504645
 20
0.294765
 30
0.0
 11
0.520128
 21
0.252943
 31
0.0
 12
0.504645
 22
0.294765
 32
0.0
 13
0.534063
 23
0.279275
 33
0.0
  0
SOLID
  5
473
  8
0
 62
     7
 10
0.504645
 20
0.294765
 30
0.0
 11
0.534063
 21
0.279275
 31
0.0
 12
0.504645
 22
0.294765
 32
0.0
 13
0.540256
 23
0.285471
 33
0.0
  0
SOLID
  5
474
  8
0
 62
     7
 10
0.597543
 20
0.22816
 30
0.0
 11
0.620767
 21
0.25759
 31
0.0
 12
0.597543
 22
0.22816
 32
0.0
 13
0.617671
 23
0.268432
 33
0.0
  0
SOLID
  5
475
  8
0
 62
     7
 10
0.643992
 20
0.347429
 30
0.0
 11
0.651733
 21
0.355173
 31
0.0
 12
0.643992
 22
0.347429
 32
0.0
 13
0.66412
 23
0.38925
 33
0.0
  0
SOLID
  5
476
  8
0
 62
     7
 10
0.574318
 20
0.251394
 30
0.0
 11
0.597543
 21
0.22816
 31
0.0
 12
0.574318
 22
0.251394
 32
0.0
 13
0.617671
 23
0.268432
 33
0.0
  0
SOLID
  5
477
  8
0
 62
     7
 10
0.540256
 20
0.587515
 30
0.0
 11
0.524773
 21
0.616945
 31
0.0
 12
0.540256
 22
0.587515
 32
0.0
 13
0.501548
 23
0.613848
 33
0.0
  0
SOLID
  5
478
  8
0
 62
     7
 10
0.569673
 20
0.266884
 30
0.0
 11
0.574318
 21
0.251394
 31
0.0
 12
0.569673
 22
0.266884
 32
0.0
 13
0.617671
 23
0.268432
 33
0.0
  0
SOLID
  5
479
  8
0
 62
     7
 10
0.698182
 20
0.403191
 30
0.0
 11
0.7276
 21
0.424876
 31
0.0
 12
0.698182
 22
0.403191
 32
0.0
 13
0.695086
 23
0.451208
 33
0.0
  0
SOLID
  5
47A
  8
0
 62
     7
 10
0.622316
 20
0.304058
 30
0.0
 11
0.631605
 21
0.319548
 31
0.0
 12
0.622316
 22
0.304058
 32
0.0
 13
0.643992
 23
0.347429
 33
0.0
  0
SOLID
  5
47B
  8
0
 62
     7
 10
0.540256
 20
0.587515
 30
0.0
 11
0.501548
 21
0.613848
 31
0.0
 12
0.540256
 22
0.587515
 32
0.0
 13
0.492259
 23
0.579771
 33
0.0
  0
SOLID
  5
47C
  8
0
 62
     7
 10
0.478324
 20
0.572026
 30
0.0
 11
0.450454
 21
0.556537
 31
0.0
 12
0.478324
 22
0.572026
 32
0.0
 13
0.470582
 23
0.52246
 33
0.0
  0
SOLID
  5
47D
  8
0
 62
     7
 10
0.478324
 20
0.572026
 30
0.0
 11
0.470582
 21
0.52246
 31
0.0
 12
0.478324
 22
0.572026
 32
0.0
 13
0.496903
 23
0.531753
 33
0.0
  0
SOLID
  5
47E
  8
0
 62
     7
 10
0.492259
 20
0.579771
 30
0.0
 11
0.478324
 21
0.572026
 31
0.0
 12
0.492259
 22
0.579771
 32
0.0
 13
0.496903
 23
0.531753
 33
0.0
  0
SOLID
  5
47F
  8
0
 62
     7
 10
0.492259
 20
0.579771
 30
0.0
 11
0.496903
 21
0.531753
 31
0.0
 12
0.492259
 22
0.579771
 32
0.0
 13
0.515483
 23
0.537949
 33
0.0
  0
SOLID
  5
480
  8
0
 62
     7
 10
0.639347
 20
0.485285
 30
0.0
 11
0.63625
 21
0.502323
 31
0.0
 12
0.639347
 22
0.485285
 32
0.0
 13
0.623864
 23
0.534851
 33
0.0
  0
SOLID
  5
481
  8
0
 62
     7
 10
0.674958
 20
0.401642
 30
0.0
 11
0.698182
 21
0.403191
 31
0.0
 12
0.674958
 22
0.401642
 32
0.0
 13
0.695086
 23
0.451208
 33
0.0
  0
SOLID
  5
482
  8
0
 62
     7
 10
0.674958
 20
0.401642
 30
0.0
 11
0.695086
 21
0.451208
 31
0.0
 12
0.674958
 22
0.401642
 32
0.0
 13
0.659475
 23
0.441914
 33
0.0
  0
SOLID
  5
483
  8
0
 62
     7
 10
0.66412
 20
0.38925
 30
0.0
 11
0.674958
 21
0.401642
 31
0.0
 12
0.66412
 22
0.38925
 32
0.0
 13
0.659475
 23
0.441914
 33
0.0
  0
SOLID
  5
484
  8
0
 62
     7
 10
0.540256
 20
0.587515
 30
0.0
 11
0.492259
 21
0.579771
 31
0.0
 12
0.540256
 22
0.587515
 32
0.0
 13
0.515483
 23
0.537949
 33
0.0
  0
SOLID
  5
485
  8
0
 62
     7
 10
0.547997
 20
0.579771
 30
0.0
 11
0.540256
 21
0.587515
 31
0.0
 12
0.547997
 22
0.579771
 32
0.0
 13
0.515483
 23
0.537949
 33
0.0
  0
SOLID
  5
486
  8
0
 62
     7
 10
0.547997
 20
0.579771
 30
0.0
 11
0.515483
 21
0.537949
 31
0.0
 12
0.547997
 22
0.579771
 32
0.0
 13
0.530966
 23
0.534851
 33
0.0
  0
SOLID
  5
487
  8
0
 62
     7
 10
0.569673
 20
0.559634
 30
0.0
 11
0.547997
 21
0.579771
 31
0.0
 12
0.569673
 22
0.559634
 32
0.0
 13
0.530966
 23
0.534851
 33
0.0
  0
SOLID
  5
488
  8
0
 62
     7
 10
0.569673
 20
0.559634
 30
0.0
 11
0.530966
 21
0.534851
 31
0.0
 12
0.569673
 22
0.559634
 32
0.0
 13
0.56348
 23
0.519362
 33
0.0
  0
SOLID
  5
489
  8
0
 62
     7
 10
0.589801
 20
0.550341
 30
0.0
 11
0.569673
 21
0.559634
 31
0.0
 12
0.589801
 22
0.550341
 32
0.0
 13
0.56348
 23
0.519362
 33
0.0
  0
SOLID
  5
48A
  8
0
 62
     7
 10
0.589801
 20
0.550341
 30
0.0
 11
0.56348
 21
0.519362
 31
0.0
 12
0.589801
 22
0.550341
 32
0.0
 13
0.585156
 23
0.508519
 33
0.0
  0
SOLID
  5
48B
  8
0
 62
     7
 10
0.623864
 20
0.534851
 30
0.0
 11
0.589801
 21
0.550341
 31
0.0
 12
0.623864
 22
0.534851
 32
0.0
 13
0.585156
 23
0.508519
 33
0.0
  0
SOLID
  5
48C
  8
0
 62
     7
 10
0.623864
 20
0.534851
 30
0.0
 11
0.585156
 21
0.508519
 31
0.0
 12
0.623864
 22
0.534851
 32
0.0
 13
0.59135
 23
0.499226
 33
0.0
  0
SOLID
  5
48D
  8
0
 62
     7
 10
0.639347
 20
0.485285
 30
0.0
 11
0.623864
 21
0.534851
 31
0.0
 12
0.639347
 22
0.485285
 32
0.0
 13
0.59135
 23
0.499226
 33
0.0
  0
SOLID
  5
48E
  8
0
 62
     7
 10
0.639347
 20
0.485285
 30
0.0
 11
0.59135
 21
0.499226
 31
0.0
 12
0.639347
 22
0.485285
 32
0.0
 13
0.597543
 23
0.482187
 33
0.0
  0
SOLID
  5
48F
  8
0
 62
     7
 10
0.639347
 20
0.485285
 30
0.0
 11
0.597543
 21
0.482187
 31
0.0
 12
0.639347
 22
0.485285
 32
0.0
 13
0.603736
 23
0.460502
 33
0.0
  0
SOLID
  5
490
  8
0
 62
     7
 10
0.648637
 20
0.454306
 30
0.0
 11
0.639347
 21
0.485285
 31
0.0
 12
0.648637
 22
0.454306
 32
0.0
 13
0.603736
 23
0.460502
 33
0.0
  0
SOLID
  5
491
  8
0
 62
     7
 10
0.648637
 20
0.454306
 30
0.0
 11
0.603736
 21
0.460502
 31
0.0
 12
0.648637
 22
0.454306
 32
0.0
 13
0.609929
 23
0.438817
 33
0.0
  0
SOLID
  5
492
  8
0
 62
     7
 10
0.659475
 20
0.441914
 30
0.0
 11
0.648637
 21
0.454306
 31
0.0
 12
0.659475
 22
0.441914
 32
0.0
 13
0.609929
 23
0.438817
 33
0.0
  0
SOLID
  5
493
  8
0
 62
     7
 10
0.659475
 20
0.441914
 30
0.0
 11
0.609929
 21
0.438817
 31
0.0
 12
0.659475
 22
0.441914
 32
0.0
 13
0.620767
 23
0.406289
 33
0.0
  0
SOLID
  5
494
  8
0
 62
     7
 10
0.66412
 20
0.38925
 30
0.0
 11
0.659475
 21
0.441914
 31
0.0
 12
0.66412
 22
0.38925
 32
0.0
 13
0.620767
 23
0.406289
 33
0.0
  0
SOLID
  5
495
  8
0
 62
     7
 10
0.66412
 20
0.38925
 30
0.0
 11
0.620767
 21
0.406289
 31
0.0
 12
0.66412
 22
0.38925
 32
0.0
 13
0.620767
 23
0.384603
 33
0.0
  0
SOLID
  5
496
  8
0
 62
     7
 10
0.643992
 20
0.347429
 30
0.0
 11
0.66412
 21
0.38925
 31
0.0
 12
0.643992
 22
0.347429
 32
0.0
 13
0.620767
 23
0.384603
 33
0.0
  0
SOLID
  5
497
  8
0
 62
     7
 10
0.643992
 20
0.347429
 30
0.0
 11
0.620767
 21
0.384603
 31
0.0
 12
0.643992
 22
0.347429
 32
0.0
 13
0.605284
 23
0.355173
 33
0.0
  0
SOLID
  5
498
  8
0
 62
     7
 10
0.643992
 20
0.347429
 30
0.0
 11
0.605284
 21
0.355173
 31
0.0
 12
0.643992
 22
0.347429
 32
0.0
 13
0.595994
 23
0.335037
 33
0.0
  0
SOLID
  5
499
  8
0
 62
     7
 10
0.622316
 20
0.304058
 30
0.0
 11
0.643992
 21
0.347429
 31
0.0
 12
0.622316
 22
0.304058
 32
0.0
 13
0.595994
 23
0.335037
 33
0.0
  0
SOLID
  5
49A
  8
0
 62
     7
 10
0.620767
 20
0.297862
 30
0.0
 11
0.622316
 21
0.304058
 31
0.0
 12
0.620767
 22
0.297862
 32
0.0
 13
0.595994
 23
0.335037
 33
0.0
  0
SOLID
  5
49B
  8
0
 62
     7
 10
0.620767
 20
0.297862
 30
0.0
 11
0.595994
 21
0.335037
 31
0.0
 12
0.620767
 22
0.297862
 32
0.0
 13
0.577415
 23
0.328841
 33
0.0
  0
SOLID
  5
49C
  8
0
 62
     7
 10
0.513935
 20
0.335037
 30
0.0
 11
0.504645
 21
0.294765
 31
0.0
 12
0.513935
 22
0.335037
 32
0.0
 13
0.540256
 23
0.285471
 33
0.0
  0
SOLID
  5
49D
  8
0
 62
     7
 10
0.557287
 20
0.335037
 30
0.0
 11
0.513935
 21
0.335037
 31
0.0
 12
0.557287
 22
0.335037
 32
0.0
 13
0.540256
 23
0.285471
 33
0.0
  0
SOLID
  5
49E
  8
0
 62
     7
 10
0.557287
 20
0.335037
 30
0.0
 11
0.540256
 21
0.285471
 31
0.0
 12
0.557287
 22
0.335037
 32
0.0
 13
0.558835
 23
0.279275
 33
0.0
  0
SOLID
  5
49F
  8
0
 62
     7
 10
0.577415
 20
0.328841
 30
0.0
 11
0.557287
 21
0.335037
 31
0.0
 12
0.577415
 22
0.328841
 32
0.0
 13
0.558835
 23
0.279275
 33
0.0
  0
SOLID
  5
4A0
  8
0
 62
     7
 10
0.569673
 20
0.266884
 30
0.0
 11
0.617671
 21
0.268432
 31
0.0
 12
0.569673
 22
0.266884
 32
0.0
 13
0.620767
 23
0.297862
 33
0.0
  0
SOLID
  5
4A1
  8
0
 62
     7
 10
0.577415
 20
0.328841
 30
0.0
 11
0.558835
 21
0.279275
 31
0.0
 12
0.577415
 22
0.328841
 32
0.0
 13
0.569673
 23
0.266884
 33
0.0
  0
SOLID
  5
4A2
  8
0
 62
     7
 10
0.577415
 20
0.328841
 30
0.0
 11
0.569673
 21
0.266884
 31
0.0
 12
0.577415
 22
0.328841
 32
0.0
 13
0.620767
 23
0.297862
 33
0.0
  0
SOLID
  5
4A3
  8
0
 62
     7
 10
0.571261
 20
0.220262
 30
0.0
 11
0.563515
 21
0.224912
 31
0.0
 12
0.571261
 22
0.220262
 32
0.0
 13
0.551122
 23
0.223362
 33
0.0
  0
SOLID
  5
4A4
  8
0
 62
     7
 10
0.558867
 20
0.071482
 30
0.0
 11
0.566613
 21
0.069933
 31
0.0
 12
0.558867
 22
0.071482
 32
0.0
 13
0.577457
 23
0.080781
 33
0.0
  0
SOLID
  5
4A5
  8
0
 62
     7
 10
0.55422
 20
0.138123
 30
0.0
 11
0.561966
 21
0.147422
 31
0.0
 12
0.55422
 22
0.138123
 32
0.0
 13
0.566613
 23
0.155171
 33
0.0
  0
SOLID
  5
4A6
  8
0
 62
     7
 10
0.57281
 20
0.141223
 30
0.0
 11
0.577457
 21
0.119526
 31
0.0
 12
0.57281
 22
0.141223
 32
0.0
 13
0.579006
 23
0.117976
 33
0.0
  0
SOLID
  5
4A7
  8
0
 62
     7
 10
0.594498
 20
0.09163
 30
0.0
 11
0.603793
 21
0.080781
 31
0.0
 12
0.594498
 22
0.09163
 32
0.0
 13
0.617735
 23
0.102478
 33
0.0
  0
SOLID
  5
4A8
  8
0
 62
     7
 10
0.526335
 20
0.16447
 30
0.0
 11
0.515491
 21
0.15982
 31
0.0
 12
0.526335
 22
0.16447
 32
0.0
 13
0.503098
 23
0.152072
 33
0.0
  0
SOLID
  5
4A9
  8
0
 62
     7
 10
0.509295
 20
0.111777
 30
0.0
 11
0.510844
 21
0.099379
 31
0.0
 12
0.509295
 22
0.111777
 32
0.0
 13
0.524786
 23
0.09008
 33
0.0
  0
SOLID
  5
4AA
  8
0
 62
     7
 10
0.558867
 20
0.071482
 30
0.0
 11
0.577457
 21
0.080781
 31
0.0
 12
0.558867
 22
0.071482
 32
0.0
 13
0.577457
 23
0.094729
 33
0.0
  0
SOLID
  5
4AB
  8
0
 62
     7
 10
0.579006
 20
0.117976
 30
0.0
 11
0.583654
 21
0.108677
 31
0.0
 12
0.579006
 22
0.117976
 32
0.0
 13
0.594498
 23
0.09163
 33
0.0
  0
SOLID
  5
4AC
  8
0
 62
     7
 10
0.571261
 20
0.220262
 30
0.0
 11
0.551122
 21
0.223362
 31
0.0
 12
0.571261
 22
0.220262
 32
0.0
 13
0.541827
 23
0.210964
 33
0.0
  0
SOLID
  5
4AD
  8
0
 62
     7
 10
0.577457
 20
0.094729
 30
0.0
 11
0.565064
 21
0.108677
 31
0.0
 12
0.577457
 22
0.094729
 32
0.0
 13
0.55422
 23
0.116426
 33
0.0
  0
SOLID
  5
4AE
  8
0
 62
     7
 10
0.594498
 20
0.09163
 30
0.0
 11
0.617735
 21
0.102478
 31
0.0
 12
0.594498
 22
0.09163
 32
0.0
 13
0.605342
 23
0.124175
 33
0.0
  0
SOLID
  5
4AF
  8
0
 62
     7
 10
0.579006
 20
0.117976
 30
0.0
 11
0.594498
 21
0.09163
 31
0.0
 12
0.579006
 22
0.117976
 32
0.0
 13
0.605342
 23
0.124175
 33
0.0
  0
SOLID
  5
4B0
  8
0
 62
     7
 10
0.579006
 20
0.117976
 30
0.0
 11
0.605342
 21
0.124175
 31
0.0
 12
0.579006
 22
0.117976
 32
0.0
 13
0.602243
 23
0.144323
 33
0.0
  0
SOLID
  5
4B1
  8
0
 62
     7
 10
0.57281
 20
0.141223
 30
0.0
 11
0.579006
 21
0.117976
 31
0.0
 12
0.57281
 22
0.141223
 32
0.0
 13
0.602243
 23
0.144323
 33
0.0
  0
SOLID
  5
4B2
  8
0
 62
     7
 10
0.571261
 20
0.15982
 30
0.0
 11
0.57281
 21
0.141223
 31
0.0
 12
0.571261
 22
0.15982
 32
0.0
 13
0.602243
 23
0.144323
 33
0.0
  0
SOLID
  5
4B3
  8
0
 62
     7
 10
0.571261
 20
0.15982
 30
0.0
 11
0.602243
 21
0.144323
 31
0.0
 12
0.571261
 22
0.15982
 32
0.0
 13
0.602243
 23
0.15982
 33
0.0
  0
SOLID
  5
4B4
  8
0
 62
     7
 10
0.571261
 20
0.15982
 30
0.0
 11
0.602243
 21
0.15982
 31
0.0
 12
0.571261
 22
0.15982
 32
0.0
 13
0.596047
 23
0.184617
 33
0.0
  0
SOLID
  5
4B5
  8
0
 62
     7
 10
0.526335
 20
0.16447
 30
0.0
 11
0.503098
 21
0.152072
 31
0.0
 12
0.526335
 22
0.16447
 32
0.0
 13
0.503098
 23
0.135024
 33
0.0
  0
SOLID
  5
4B6
  8
0
 62
     7
 10
0.541827
 20
0.080781
 30
0.0
 11
0.558867
 21
0.071482
 31
0.0
 12
0.541827
 22
0.080781
 32
0.0
 13
0.577457
 23
0.094729
 33
0.0
  0
SOLID
  5
4B7
  8
0
 62
     7
 10
0.541827
 20
0.080781
 30
0.0
 11
0.577457
 21
0.094729
 31
0.0
 12
0.541827
 22
0.080781
 32
0.0
 13
0.55422
 23
0.116426
 33
0.0
  0
SOLID
  5
4B8
  8
0
 62
     7
 10
0.524786
 20
0.09008
 30
0.0
 11
0.541827
 21
0.080781
 31
0.0
 12
0.524786
 22
0.09008
 32
0.0
 13
0.55422
 23
0.116426
 33
0.0
  0
SOLID
  5
4B9
  8
0
 62
     7
 10
0.583654
 20
0.203215
 30
0.0
 11
0.571261
 21
0.220262
 31
0.0
 12
0.583654
 22
0.203215
 32
0.0
 13
0.541827
 23
0.210964
 33
0.0
  0
SOLID
  5
4BA
  8
0
 62
     7
 10
0.524786
 20
0.09008
 30
0.0
 11
0.55422
 21
0.116426
 31
0.0
 12
0.524786
 22
0.09008
 32
0.0
 13
0.548023
 23
0.125725
 33
0.0
  0
SOLID
  5
4BB
  8
0
 62
     7
 10
0.509295
 20
0.111777
 30
0.0
 11
0.524786
 21
0.09008
 31
0.0
 12
0.509295
 22
0.111777
 32
0.0
 13
0.548023
 23
0.125725
 33
0.0
  0
SOLID
  5
4BC
  8
0
 62
     7
 10
0.583654
 20
0.203215
 30
0.0
 11
0.541827
 21
0.210964
 31
0.0
 12
0.583654
 22
0.203215
 32
0.0
 13
0.541827
 23
0.189267
 33
0.0
  0
SOLID
  5
4BD
  8
0
 62
     7
 10
0.571261
 20
0.15982
 30
0.0
 11
0.596047
 21
0.184617
 31
0.0
 12
0.571261
 22
0.15982
 32
0.0
 13
0.583654
 23
0.203215
 33
0.0
  0
SOLID
  5
4BE
  8
0
 62
     7
 10
0.571261
 20
0.15982
 30
0.0
 11
0.583654
 21
0.203215
 31
0.0
 12
0.571261
 22
0.15982
 32
0.0
 13
0.541827
 23
0.189267
 33
0.0
  0
SOLID
  5
4BF
  8
0
 62
     7
 10
0.571261
 20
0.15982
 30
0.0
 11
0.541827
 21
0.189267
 31
0.0
 12
0.571261
 22
0.15982
 32
0.0
 13
0.538729
 23
0.172219
 33
0.0
  0
SOLID
  5
4C0
  8
0
 62
     7
 10
0.566613
 20
0.155171
 30
0.0
 11
0.571261
 21
0.15982
 31
0.0
 12
0.566613
 22
0.155171
 32
0.0
 13
0.538729
 23
0.172219
 33
0.0
  0
SOLID
  5
4C1
  8
0
 62
     7
 10
0.55422
 20
0.138123
 30
0.0
 11
0.566613
 21
0.155171
 31
0.0
 12
0.55422
 22
0.138123
 32
0.0
 13
0.538729
 23
0.172219
 33
0.0
  0
SOLID
  5
4C2
  8
0
 62
     7
 10
0.55422
 20
0.138123
 30
0.0
 11
0.538729
 21
0.172219
 31
0.0
 12
0.55422
 22
0.138123
 32
0.0
 13
0.526335
 23
0.16447
 33
0.0
  0
SOLID
  5
4C3
  8
0
 62
     7
 10
0.548023
 20
0.125725
 30
0.0
 11
0.55422
 21
0.138123
 31
0.0
 12
0.548023
 22
0.125725
 32
0.0
 13
0.526335
 23
0.16447
 33
0.0
  0
SOLID
  5
4C4
  8
0
 62
     7
 10
0.548023
 20
0.125725
 30
0.0
 11
0.526335
 21
0.16447
 31
0.0
 12
0.548023
 22
0.125725
 32
0.0
 13
0.503098
 23
0.135024
 33
0.0
  0
SOLID
  5
4C5
  8
0
 62
     7
 10
0.509295
 20
0.111777
 30
0.0
 11
0.548023
 21
0.125725
 31
0.0
 12
0.509295
 22
0.111777
 32
0.0
 13
0.503098
 23
0.135024
 33
0.0
  0
SOLID
  5
4C6
  8
0
 62
     7
 10
0.730822
 20
0.068383
 30
0.0
 11
0.721528
 21
0.066833
 31
0.0
 12
0.730822
 22
0.068383
 32
0.0
 13
0.715331
 23
0.062184
 33
0.0
  0
SOLID
  5
4C7
  8
0
 62
     7
 10
0.696741
 20
0.029638
 30
0.0
 11
0.693643
 21
0.01569
 31
0.0
 12
0.696741
 22
0.029638
 32
0.0
 13
0.69984
 23
0.01259
 33
0.0
  0
SOLID
  5
4C8
  8
0
 62
     7
 10
0.749412
 20
0.062184
 30
0.0
 11
0.743216
 21
0.068383
 31
0.0
 12
0.749412
 22
0.062184
 32
0.0
 13
0.730822
 23
0.068383
 33
0.0
  0
SOLID
  5
4C9
  8
0
 62
     7
 10
0.724626
 20
0.009491
 30
0.0
 11
0.737019
 21
0.01104
 31
0.0
 12
0.724626
 22
0.009491
 32
0.0
 13
0.740117
 23
0.021889
 33
0.0
  0
SOLID
  5
4CA
  8
0
 62
     7
 10
0.706036
 20
0.051335
 30
0.0
 11
0.69984
 21
0.042036
 31
0.0
 12
0.706036
 22
0.051335
 32
0.0
 13
0.696741
 23
0.029638
 33
0.0
  0
SOLID
  5
4CB
  8
0
 62
     7
 10
0.696741
 20
0.029638
 30
0.0
 11
0.69984
 21
0.01259
 31
0.0
 12
0.696741
 22
0.029638
 32
0.0
 13
0.710684
 23
0.009491
 33
0.0
  0
SOLID
  5
4CC
  8
0
 62
     7
 10
0.749412
 20
0.046686
 30
0.0
 11
0.749412
 21
0.062184
 31
0.0
 12
0.749412
 22
0.046686
 32
0.0
 13
0.730822
 23
0.068383
 33
0.0
  0
SOLID
  5
4CD
  8
0
 62
     7
 10
0.730822
 20
0.068383
 30
0.0
 11
0.715331
 21
0.062184
 31
0.0
 12
0.730822
 22
0.068383
 32
0.0
 13
0.706036
 23
0.051335
 33
0.0
  0
SOLID
  5
4CE
  8
0
 62
     7
 10
0.710684
 20
0.009491
 30
0.0
 11
0.724626
 21
0.009491
 31
0.0
 12
0.710684
 22
0.009491
 32
0.0
 13
0.740117
 23
0.021889
 33
0.0
  0
SOLID
  5
4CF
  8
0
 62
     7
 10
0.706036
 20
0.051335
 30
0.0
 11
0.696741
 21
0.029638
 31
0.0
 12
0.706036
 22
0.051335
 32
0.0
 13
0.710684
 23
0.009491
 33
0.0
  0
SOLID
  5
4D0
  8
0
 62
     7
 10
0.749412
 20
0.046686
 30
0.0
 11
0.730822
 21
0.068383
 31
0.0
 12
0.749412
 22
0.046686
 32
0.0
 13
0.706036
 23
0.051335
 33
0.0
  0
SOLID
  5
4D1
  8
0
 62
     7
 10
0.706036
 20
0.051335
 30
0.0
 11
0.710684
 21
0.009491
 31
0.0
 12
0.706036
 22
0.051335
 32
0.0
 13
0.740117
 23
0.021889
 33
0.0
  0
SOLID
  5
4D2
  8
0
 62
     7
 10
0.706036
 20
0.051335
 30
0.0
 11
0.740117
 21
0.021889
 31
0.0
 12
0.706036
 22
0.051335
 32
0.0
 13
0.749412
 23
0.046686
 33
0.0
  0
SOLID
  5
4D3
  8
0
 62
     7
 10
0.777297
 20
0.494576
 30
0.0
 11
0.780395
 21
0.493026
 31
0.0
 12
0.777297
 22
0.494576
 32
0.0
 13
0.791239
 23
0.499225
 33
0.0
  0
SOLID
  5
4D4
  8
0
 62
     7
 10
0.792788
 20
0.593762
 30
0.0
 11
0.786592
 21
0.596862
 31
0.0
 12
0.792788
 22
0.593762
 32
0.0
 13
0.774198
 23
0.598412
 33
0.0
  0
SOLID
  5
4D5
  8
0
 62
     7
 10
0.791239
 20
0.499225
 30
0.0
 11
0.795886
 21
0.510074
 31
0.0
 12
0.791239
 22
0.499225
 32
0.0
 13
0.798985
 23
0.519372
 33
0.0
  0
SOLID
  5
4D6
  8
0
 62
     7
 10
0.766453
 20
0.505424
 30
0.0
 11
0.777297
 21
0.494576
 31
0.0
 12
0.766453
 22
0.505424
 32
0.0
 13
0.791239
 23
0.499225
 33
0.0
  0
SOLID
  5
4D7
  8
0
 62
     7
 10
0.774198
 20
0.598412
 30
0.0
 11
0.766453
 21
0.590663
 31
0.0
 12
0.774198
 22
0.598412
 32
0.0
 13
0.763354
 23
0.575165
 33
0.0
  0
SOLID
  5
4D8
  8
0
 62
     7
 10
0.763354
 20
0.575165
 30
0.0
 11
0.766453
 21
0.559667
 31
0.0
 12
0.763354
 22
0.575165
 32
0.0
 13
0.7711
 23
0.547269
 33
0.0
  0
SOLID
  5
4D9
  8
0
 62
     7
 10
0.772649
 20
0.527121
 30
0.0
 11
0.766453
 21
0.505424
 31
0.0
 12
0.772649
 22
0.527121
 32
0.0
 13
0.791239
 23
0.499225
 33
0.0
  0
SOLID
  5
4DA
  8
0
 62
     7
 10
0.772649
 20
0.527121
 30
0.0
 11
0.791239
 21
0.499225
 31
0.0
 12
0.772649
 22
0.527121
 32
0.0
 13
0.798985
 23
0.519372
 33
0.0
  0
SOLID
  5
4DB
  8
0
 62
     7
 10
0.772649
 20
0.527121
 30
0.0
 11
0.798985
 21
0.519372
 31
0.0
 12
0.772649
 22
0.527121
 32
0.0
 13
0.803632
 23
0.53642
 33
0.0
  0
SOLID
  5
4DC
  8
0
 62
     7
 10
0.772649
 20
0.527121
 30
0.0
 11
0.803632
 21
0.53642
 31
0.0
 12
0.772649
 22
0.527121
 32
0.0
 13
0.805181
 23
0.53797
 33
0.0
  0
SOLID
  5
4DD
  8
0
 62
     7
 10
0.792788
 20
0.593762
 30
0.0
 11
0.774198
 21
0.598412
 31
0.0
 12
0.792788
 22
0.593762
 32
0.0
 13
0.763354
 23
0.575165
 33
0.0
  0
SOLID
  5
4DE
  8
0
 62
     7
 10
0.797436
 20
0.572065
 30
0.0
 11
0.792788
 21
0.593762
 31
0.0
 12
0.797436
 22
0.572065
 32
0.0
 13
0.763354
 23
0.575165
 33
0.0
  0
SOLID
  5
4DF
  8
0
 62
     7
 10
0.7711
 20
0.547269
 30
0.0
 11
0.772649
 21
0.527121
 31
0.0
 12
0.7711
 22
0.547269
 32
0.0
 13
0.805181
 23
0.53797
 33
0.0
  0
SOLID
  5
4E0
  8
0
 62
     7
 10
0.7711
 20
0.547269
 30
0.0
 11
0.805181
 21
0.53797
 31
0.0
 12
0.7711
 22
0.547269
 32
0.0
 13
0.797436
 23
0.572065
 33
0.0
  0
SOLID
  5
4E1
  8
0
 62
     7
 10
0.7711
 20
0.547269
 30
0.0
 11
0.797436
 21
0.572065
 31
0.0
 12
0.7711
 22
0.547269
 32
0.0
 13
0.763354
 23
0.575165
 33
0.0
  0
SOLID
  5
4E2
  8
0
 62
     7
 10
0.733793
 20
0.829151
 30
0.0
 11
0.746179
 21
0.822955
 31
0.0
 12
0.733793
 22
0.829151
 32
0.0
 13
0.755469
 23
0.8307
 33
0.0
  0
SOLID
  5
4E3
  8
0
 62
     7
 10
0.894816
 20
0.609201
 30
0.0
 11
0.896364
 21
0.596809
 31
0.0
 12
0.894816
 22
0.609201
 32
0.0
 13
0.905654
 23
0.589064
 33
0.0
  0
SOLID
  5
4E4
  8
0
 62
     7
 10
0.701279
 20
0.513166
 30
0.0
 11
0.712117
 21
0.497677
 31
0.0
 12
0.701279
 22
0.513166
 32
0.0
 13
0.722955
 23
0.496128
 33
0.0
  0
SOLID
  5
4E5
  8
0
 62
     7
 10
0.784887
 20
0.960812
 30
0.0
 11
0.789532
 21
0.979399
 31
0.0
 12
0.784887
 22
0.960812
 32
0.0
 13
0.79108
 23
0.988693
 33
0.0
  0
SOLID
  5
4E6
  8
0
 62
     7
 10
0.894816
 20
0.609201
 30
0.0
 11
0.905654
 21
0.589064
 31
0.0
 12
0.894816
 22
0.609201
 32
0.0
 13
0.921137
 23
0.596809
 33
0.0
  0
SOLID
  5
4E7
  8
0
 62
     7
 10
0.729148
 20
0.84619
 30
0.0
 11
0.733793
 21
0.829151
 31
0.0
 12
0.729148
 22
0.84619
 32
0.0
 13
0.755469
 23
0.8307
 33
0.0
  0
SOLID
  5
4E8
  8
0
 62
     7
 10
0.880881
 20
0.779585
 30
0.0
 11
0.874688
 21
0.793525
 31
0.0
 12
0.880881
 22
0.779585
 32
0.0
 13
0.865398
 23
0.805917
 33
0.0
  0
SOLID
  5
4E9
  8
0
 62
     7
 10
0.894816
 20
0.609201
 30
0.0
 11
0.921137
 21
0.596809
 31
0.0
 12
0.894816
 22
0.609201
 32
0.0
 13
0.925782
 23
0.613848
 33
0.0
  0
SOLID
  5
4EA
  8
0
 62
     7
 10
0.79108
 20
0.988693
 30
0.0
 11
0.8
 21
1.0
 31
0.0
 12
0.79108
 22
0.988693
 32
0.0
 13
0.76
 23
1.0
 33
0.0
  0
SOLID
  5
4EB
  8
0
 62
     7
 10
0.894816
 20
0.626239
 30
0.0
 11
0.894816
 21
0.609201
 31
0.0
 12
0.894816
 22
0.626239
 32
0.0
 13
0.925782
 23
0.613848
 33
0.0
  0
SOLID
  5
4EC
  8
0
 62
     7
 10
0.729148
 20
0.84619
 30
0.0
 11
0.755469
 21
0.8307
 31
0.0
 12
0.729148
 22
0.84619
 32
0.0
 13
0.763211
 23
0.849287
 33
0.0
  0
SOLID
  5
4ED
  8
0
 62
     7
 10
0.735341
 20
0.864777
 30
0.0
 11
0.729148
 21
0.84619
 31
0.0
 12
0.735341
 22
0.864777
 32
0.0
 13
0.763211
 23
0.849287
 33
0.0
  0
SOLID
  5
4EE
  8
0
 62
     7
 10
0.750824
 20
0.880266
 30
0.0
 11
0.735341
 21
0.864777
 31
0.0
 12
0.750824
 22
0.880266
 32
0.0
 13
0.763211
 23
0.849287
 33
0.0
  0
SOLID
  5
4EF
  8
0
 62
     7
 10
0.750824
 20
0.880266
 30
0.0
 11
0.763211
 21
0.849287
 31
0.0
 12
0.750824
 22
0.880266
 32
0.0
 13
0.7725
 23
0.866326
 33
0.0
  0
SOLID
  5
4F0
  8
0
 62
     7
 10
0.763211
 20
0.897305
 30
0.0
 11
0.750824
 21
0.880266
 31
0.0
 12
0.763211
 22
0.897305
 32
0.0
 13
0.7725
 23
0.866326
 33
0.0
  0
SOLID
  5
4F1
  8
0
 62
     7
 10
0.763211
 20
0.897305
 30
0.0
 11
0.7725
 21
0.866326
 31
0.0
 12
0.763211
 22
0.897305
 32
0.0
 13
0.783338
 23
0.869424
 33
0.0
  0
SOLID
  5
4F2
  8
0
 62
     7
 10
0.701279
 20
0.513166
 30
0.0
 11
0.722955
 21
0.496128
 31
0.0
 12
0.701279
 22
0.513166
 32
0.0
 13
0.73689
 23
0.510068
 33
0.0
  0
SOLID
  5
4F3
  8
0
 62
     7
 10
0.78179
 20
0.637082
 30
0.0
 11
0.792628
 21
0.652571
 31
0.0
 12
0.78179
 22
0.637082
 32
0.0
 13
0.801918
 23
0.668061
 33
0.0
  0
SOLID
  5
4F4
  8
0
 62
     7
 10
0.853012
 20
0.836896
 30
0.0
 11
0.846819
 21
0.852385
 31
0.0
 12
0.853012
 22
0.836896
 32
0.0
 13
0.832884
 23
0.867875
 33
0.0
  0
SOLID
  5
4F5
  8
0
 62
     7
 10
0.894816
 20
0.626239
 30
0.0
 11
0.925782
 21
0.613848
 31
0.0
 12
0.894816
 22
0.626239
 32
0.0
 13
0.92733
 23
0.646375
 33
0.0
  0
SOLID
  5
4F6
  8
0
 62
     7
 10
0.891719
 20
0.644827
 30
0.0
 11
0.894816
 21
0.626239
 31
0.0
 12
0.891719
 22
0.644827
 32
0.0
 13
0.92733
 23
0.646375
 33
0.0
  0
SOLID
  5
4F7
  8
0
 62
     7
 10
0.887074
 20
0.658767
 30
0.0
 11
0.891719
 21
0.644827
 31
0.0
 12
0.887074
 22
0.658767
 32
0.0
 13
0.92733
 23
0.646375
 33
0.0
  0
SOLID
  5
4F8
  8
0
 62
     7
 10
0.887074
 20
0.658767
 30
0.0
 11
0.92733
 21
0.646375
 31
0.0
 12
0.887074
 22
0.658767
 32
0.0
 13
0.908751
 23
0.68355
 33
0.0
  0
SOLID
  5
4F9
  8
0
 62
     7
 10
0.879333
 20
0.675805
 30
0.0
 11
0.887074
 21
0.658767
 31
0.0
 12
0.879333
 22
0.675805
 32
0.0
 13
0.908751
 23
0.68355
 33
0.0
  0
SOLID
  5
4FA
  8
0
 62
     7
 10
0.879333
 20
0.675805
 30
0.0
 11
0.908751
 21
0.68355
 31
0.0
 12
0.879333
 22
0.675805
 32
0.0
 13
0.896364
 23
0.705235
 33
0.0
  0
SOLID
  5
4FB
  8
0
 62
     7
 10
0.870043
 20
0.702138
 30
0.0
 11
0.879333
 21
0.675805
 31
0.0
 12
0.870043
 22
0.702138
 32
0.0
 13
0.896364
 23
0.705235
 33
0.0
  0
SOLID
  5
4FC
  8
0
 62
     7
 10
0.857657
 20
0.717627
 30
0.0
 11
0.870043
 21
0.702138
 31
0.0
 12
0.857657
 22
0.717627
 32
0.0
 13
0.896364
 23
0.705235
 33
0.0
  0
SOLID
  5
4FD
  8
0
 62
     7
 10
0.857657
 20
0.717627
 30
0.0
 11
0.896364
 21
0.705235
 31
0.0
 12
0.857657
 22
0.717627
 32
0.0
 13
0.893268
 23
0.736214
 33
0.0
  0
SOLID
  5
4FE
  8
0
 62
     7
 10
0.701279
 20
0.533302
 30
0.0
 11
0.701279
 21
0.513166
 31
0.0
 12
0.701279
 22
0.533302
 32
0.0
 13
0.73689
 23
0.510068
 33
0.0
  0
SOLID
  5
4FF
  8
0
 62
     7
 10
0.701279
 20
0.533302
 30
0.0
 11
0.73689
 21
0.510068
 31
0.0
 12
0.701279
 22
0.533302
 32
0.0
 13
0.739986
 23
0.531753
 33
0.0
  0
SOLID
  5
500
  8
0
 62
     7
 10
0.707472
 20
0.559634
 30
0.0
 11
0.701279
 21
0.533302
 31
0.0
 12
0.707472
 22
0.559634
 32
0.0
 13
0.739986
 23
0.531753
 33
0.0
  0
SOLID
  5
501
  8
0
 62
     7
 10
0.707472
 20
0.559634
 30
0.0
 11
0.739986
 21
0.531753
 31
0.0
 12
0.707472
 22
0.559634
 32
0.0
 13
0.739986
 23
0.562732
 33
0.0
  0
SOLID
  5
502
  8
0
 62
     7
 10
0.713665
 20
0.587515
 30
0.0
 11
0.707472
 21
0.559634
 31
0.0
 12
0.713665
 22
0.587515
 32
0.0
 13
0.739986
 23
0.562732
 33
0.0
  0
SOLID
  5
503
  8
0
 62
     7
 10
0.713665
 20
0.587515
 30
0.0
 11
0.739986
 21
0.562732
 31
0.0
 12
0.713665
 22
0.587515
 32
0.0
 13
0.744631
 23
0.592162
 33
0.0
  0
SOLID
  5
504
  8
0
 62
     7
 10
0.716762
 20
0.613848
 30
0.0
 11
0.713665
 21
0.587515
 31
0.0
 12
0.716762
 22
0.613848
 32
0.0
 13
0.744631
 23
0.592162
 33
0.0
  0
SOLID
  5
505
  8
0
 62
     7
 10
0.716762
 20
0.613848
 30
0.0
 11
0.744631
 21
0.592162
 31
0.0
 12
0.716762
 22
0.613848
 32
0.0
 13
0.753921
 23
0.615397
 33
0.0
  0
SOLID
  5
506
  8
0
 62
     7
 10
0.732245
 20
0.635533
 30
0.0
 11
0.716762
 21
0.613848
 31
0.0
 12
0.732245
 22
0.635533
 32
0.0
 13
0.753921
 23
0.615397
 33
0.0
  0
SOLID
  5
507
  8
0
 62
     7
 10
0.732245
 20
0.635533
 30
0.0
 11
0.753921
 21
0.615397
 31
0.0
 12
0.732245
 22
0.635533
 32
0.0
 13
0.761662
 23
0.62469
 33
0.0
  0
SOLID
  5
508
  8
0
 62
     7
 10
0.753921
 20
0.649473
 30
0.0
 11
0.732245
 21
0.635533
 31
0.0
 12
0.753921
 22
0.649473
 32
0.0
 13
0.761662
 23
0.62469
 33
0.0
  0
SOLID
  5
509
  8
0
 62
     7
 10
0.753921
 20
0.649473
 30
0.0
 11
0.761662
 21
0.62469
 31
0.0
 12
0.753921
 22
0.649473
 32
0.0
 13
0.78179
 23
0.637082
 33
0.0
  0
SOLID
  5
50A
  8
0
 62
     7
 10
0.769404
 20
0.661865
 30
0.0
 11
0.753921
 21
0.649473
 31
0.0
 12
0.769404
 22
0.661865
 32
0.0
 13
0.78179
 23
0.637082
 33
0.0
  0
SOLID
  5
50B
  8
0
 62
     7
 10
0.769404
 20
0.661865
 30
0.0
 11
0.78179
 21
0.637082
 31
0.0
 12
0.769404
 22
0.661865
 32
0.0
 13
0.801918
 23
0.668061
 33
0.0
  0
SOLID
  5
50C
  8
0
 62
     7
 10
0.78179
 20
0.686648
 30
0.0
 11
0.769404
 21
0.661865
 31
0.0
 12
0.78179
 22
0.686648
 32
0.0
 13
0.801918
 23
0.668061
 33
0.0
  0
SOLID
  5
50D
  8
0
 62
     7
 10
0.78179
 20
0.686648
 30
0.0
 11
0.801918
 21
0.668061
 31
0.0
 12
0.78179
 22
0.686648
 32
0.0
 13
0.815853
 23
0.691295
 33
0.0
  0
SOLID
  5
50E
  8
0
 62
     7
 10
0.787983
 20
0.711431
 30
0.0
 11
0.78179
 21
0.686648
 31
0.0
 12
0.787983
 22
0.711431
 32
0.0
 13
0.815853
 23
0.691295
 33
0.0
  0
SOLID
  5
50F
  8
0
 62
     7
 10
0.806563
 20
0.726921
 30
0.0
 11
0.787983
 21
0.711431
 31
0.0
 12
0.806563
 22
0.726921
 32
0.0
 13
0.815853
 23
0.691295
 33
0.0
  0
SOLID
  5
510
  8
0
 62
     7
 10
0.806563
 20
0.726921
 30
0.0
 11
0.815853
 21
0.691295
 31
0.0
 12
0.806563
 22
0.726921
 32
0.0
 13
0.828239
 23
0.708333
 33
0.0
  0
SOLID
  5
511
  8
0
 62
     7
 10
0.822046
 20
0.737763
 30
0.0
 11
0.806563
 21
0.726921
 31
0.0
 12
0.822046
 22
0.737763
 32
0.0
 13
0.828239
 23
0.708333
 33
0.0
  0
SOLID
  5
512
  8
0
 62
     7
 10
0.822046
 20
0.737763
 30
0.0
 11
0.828239
 21
0.708333
 31
0.0
 12
0.822046
 22
0.737763
 32
0.0
 13
0.85456
 23
0.717627
 33
0.0
  0
SOLID
  5
513
  8
0
 62
     7
 10
0.822046
 20
0.737763
 30
0.0
 11
0.85456
 21
0.717627
 31
0.0
 12
0.822046
 22
0.737763
 32
0.0
 13
0.857657
 23
0.717627
 33
0.0
  0
SOLID
  5
514
  8
0
 62
     7
 10
0.832884
 20
0.753253
 30
0.0
 11
0.822046
 21
0.737763
 31
0.0
 12
0.832884
 22
0.753253
 32
0.0
 13
0.857657
 23
0.717627
 33
0.0
  0
SOLID
  5
515
  8
0
 62
     7
 10
0.763211
 20
0.897305
 30
0.0
 11
0.783338
 21
0.869424
 31
0.0
 12
0.763211
 22
0.897305
 32
0.0
 13
0.79108
 23
0.863228
 33
0.0
  0
SOLID
  5
516
  8
0
 62
     7
 10
0.893268
 20
0.736214
 30
0.0
 11
0.890171
 21
0.759449
 31
0.0
 12
0.893268
 22
0.736214
 32
0.0
 13
0.880881
 23
0.779585
 33
0.0
  0
SOLID
  5
517
  8
0
 62
     7
 10
0.784887
 20
0.960812
 30
0.0
 11
0.79108
 21
0.988693
 31
0.0
 12
0.784887
 22
0.960812
 32
0.0
 13
0.76
 23
1.0
 33
0.0
  0
SOLID
  5
518
  8
0
 62
     7
 10
0.784887
 20
0.960812
 30
0.0
 11
0.76
 21
1.0
 31
0.0
 12
0.784887
 22
0.960812
 32
0.0
 13
0.750824
 23
0.965458
 33
0.0
  0
SOLID
  5
519
  8
0
 62
     7
 10
0.784887
 20
0.942224
 30
0.0
 11
0.784887
 21
0.960812
 31
0.0
 12
0.784887
 22
0.942224
 32
0.0
 13
0.750824
 23
0.965458
 33
0.0
  0
SOLID
  5
51A
  8
0
 62
     7
 10
0.784887
 20
0.942224
 30
0.0
 11
0.750824
 21
0.965458
 31
0.0
 12
0.784887
 22
0.942224
 32
0.0
 13
0.752373
 23
0.931382
 33
0.0
  0
SOLID
  5
51B
  8
0
 62
     7
 10
0.79108
 20
0.928284
 30
0.0
 11
0.784887
 21
0.942224
 31
0.0
 12
0.79108
 22
0.928284
 32
0.0
 13
0.752373
 23
0.931382
 33
0.0
  0
SOLID
  5
51C
  8
0
 62
     7
 10
0.79108
 20
0.928284
 30
0.0
 11
0.752373
 21
0.931382
 31
0.0
 12
0.79108
 22
0.928284
 32
0.0
 13
0.760114
 23
0.908147
 33
0.0
  0
SOLID
  5
51D
  8
0
 62
     7
 10
0.797273
 20
0.914343
 30
0.0
 11
0.79108
 21
0.928284
 31
0.0
 12
0.797273
 22
0.914343
 32
0.0
 13
0.760114
 23
0.908147
 33
0.0
  0
SOLID
  5
51E
  8
0
 62
     7
 10
0.797273
 20
0.914343
 30
0.0
 11
0.760114
 21
0.908147
 31
0.0
 12
0.797273
 22
0.914343
 32
0.0
 13
0.763211
 23
0.897305
 33
0.0
  0
SOLID
  5
51F
  8
0
 62
     7
 10
0.79108
 20
0.863228
 30
0.0
 11
0.798821
 21
0.836896
 31
0.0
 12
0.79108
 22
0.863228
 32
0.0
 13
0.811208
 23
0.819857
 33
0.0
  0
SOLID
  5
520
  8
0
 62
     7
 10
0.797273
 20
0.914343
 30
0.0
 11
0.763211
 21
0.897305
 31
0.0
 12
0.797273
 22
0.914343
 32
0.0
 13
0.79108
 23
0.863228
 33
0.0
  0
SOLID
  5
521
  8
0
 62
     7
 10
0.815853
 20
0.886462
 30
0.0
 11
0.797273
 21
0.914343
 31
0.0
 12
0.815853
 22
0.886462
 32
0.0
 13
0.79108
 23
0.863228
 33
0.0
  0
SOLID
  5
522
  8
0
 62
     7
 10
0.832884
 20
0.867875
 30
0.0
 11
0.815853
 21
0.886462
 31
0.0
 12
0.832884
 22
0.867875
 32
0.0
 13
0.79108
 23
0.863228
 33
0.0
  0
SOLID
  5
523
  8
0
 62
     7
 10
0.832884
 20
0.867875
 30
0.0
 11
0.79108
 21
0.863228
 31
0.0
 12
0.832884
 22
0.867875
 32
0.0
 13
0.811208
 23
0.819857
 33
0.0
  0
SOLID
  5
524
  8
0
 62
     7
 10
0.853012
 20
0.836896
 30
0.0
 11
0.832884
 21
0.867875
 31
0.0
 12
0.853012
 22
0.836896
 32
0.0
 13
0.811208
 23
0.819857
 33
0.0
  0
SOLID
  5
525
  8
0
 62
     7
 10
0.853012
 20
0.836896
 30
0.0
 11
0.811208
 21
0.819857
 31
0.0
 12
0.853012
 22
0.836896
 32
0.0
 13
0.822046
 23
0.798172
 33
0.0
  0
SOLID
  5
526
  8
0
 62
     7
 10
0.865398
 20
0.805917
 30
0.0
 11
0.853012
 21
0.836896
 31
0.0
 12
0.865398
 22
0.805917
 32
0.0
 13
0.822046
 23
0.798172
 33
0.0
  0
SOLID
  5
527
  8
0
 62
     7
 10
0.865398
 20
0.805917
 30
0.0
 11
0.822046
 21
0.798172
 31
0.0
 12
0.865398
 22
0.805917
 32
0.0
 13
0.831336
 23
0.778036
 33
0.0
  0
SOLID
  5
528
  8
0
 62
     7
 10
0.880881
 20
0.779585
 30
0.0
 11
0.865398
 21
0.805917
 31
0.0
 12
0.880881
 22
0.779585
 32
0.0
 13
0.831336
 23
0.778036
 33
0.0
  0
SOLID
  5
529
  8
0
 62
     7
 10
0.880881
 20
0.779585
 30
0.0
 11
0.831336
 21
0.778036
 31
0.0
 12
0.880881
 22
0.779585
 32
0.0
 13
0.832884
 23
0.753253
 33
0.0
  0
SOLID
  5
52A
  8
0
 62
     7
 10
0.832884
 20
0.753253
 30
0.0
 11
0.857657
 21
0.717627
 31
0.0
 12
0.832884
 22
0.753253
 32
0.0
 13
0.893268
 23
0.736214
 33
0.0
  0
SOLID
  5
52B
  8
0
 62
     7
 10
0.832884
 20
0.753253
 30
0.0
 11
0.893268
 21
0.736214
 31
0.0
 12
0.832884
 22
0.753253
 32
0.0
 13
0.880881
 23
0.779585
 33
0.0
  0
SOLID
  5
52C
  8
0
 62
     7
 10
0.634702
 20
0.607652
 30
0.0
 11
0.63625
 21
0.620043
 31
0.0
 12
0.634702
 22
0.607652
 32
0.0
 13
0.620767
 23
0.620043
 33
0.0
  0
SOLID
  5
52D
  8
0
 62
     7
 10
0.696634
 20
0.773389
 30
0.0
 11
0.702827
 21
0.78733
 31
0.0
 12
0.696634
 22
0.773389
 32
0.0
 13
0.702827
 23
0.791976
 33
0.0
  0
SOLID
  5
52E
  8
0
 62
     7
 10
0.659475
 20
0.542596
 30
0.0
 11
0.661023
 21
0.531753
 31
0.0
 12
0.659475
 22
0.542596
 32
0.0
 13
0.678054
 23
0.534851
 33
0.0
  0
SOLID
  5
52F
  8
0
 62
     7
 10
0.729148
 20
0.730019
 30
0.0
 11
0.721407
 21
0.723823
 31
0.0
 12
0.729148
 22
0.730019
 32
0.0
 13
0.71831
 23
0.711431
 33
0.0
  0
SOLID
  5
530
  8
0
 62
     7
 10
0.792628
 20
0.805917
 30
0.0
 11
0.784887
 21
0.810564
 31
0.0
 12
0.792628
 22
0.805917
 32
0.0
 13
0.770952
 23
0.805917
 33
0.0
  0
SOLID
  5
531
  8
0
 62
     7
 10
0.704375
 20
0.954616
 30
0.0
 11
0.690441
 21
0.942224
 31
0.0
 12
0.704375
 22
0.954616
 32
0.0
 13
0.687344
 23
0.936029
 33
0.0
  0
SOLID
  5
532
  8
0
 62
     7
 10
0.753921
 20
0.773389
 30
0.0
 11
0.744631
 21
0.767193
 31
0.0
 12
0.753921
 22
0.773389
 32
0.0
 13
0.738438
 23
0.753253
 33
0.0
  0
SOLID
  5
533
  8
0
 62
     7
 10
0.770952
 20
0.805917
 30
0.0
 11
0.770952
 21
0.78733
 31
0.0
 12
0.770952
 22
0.805917
 32
0.0
 13
0.7725
 23
0.779585
 33
0.0
  0
SOLID
  5
534
  8
0
 62
     7
 10
0.634702
 20
0.607652
 30
0.0
 11
0.620767
 21
0.620043
 31
0.0
 12
0.634702
 22
0.607652
 32
0.0
 13
0.608381
 23
0.61075
 33
0.0
  0
SOLID
  5
535
  8
0
 62
     7
 10
0.681151
 20
0.906599
 30
0.0
 11
0.668764
 21
0.898854
 31
0.0
 12
0.681151
 22
0.906599
 32
0.0
 13
0.665668
 23
0.884913
 33
0.0
  0
SOLID
  5
536
  8
0
 62
     7
 10
0.7276
 20
0.940675
 30
0.0
 11
0.71831
 21
0.951518
 31
0.0
 12
0.7276
 22
0.940675
 32
0.0
 13
0.704375
 23
0.954616
 33
0.0
  0
SOLID
  5
537
  8
0
 62
     7
 10
0.707472
 20
0.655669
 30
0.0
 11
0.71831
 21
0.663414
 31
0.0
 12
0.707472
 22
0.655669
 32
0.0
 13
0.730696
 23
0.672708
 33
0.0
  0
SOLID
  5
538
  8
0
 62
     7
 10
0.670313
 20
0.680452
 30
0.0
 11
0.671861
 21
0.661865
 31
0.0
 12
0.670313
 22
0.680452
 32
0.0
 13
0.674958
 23
0.651022
 33
0.0
  0
SOLID
  5
539
  8
0
 62
     7
 10
0.656378
 20
0.726921
 30
0.0
 11
0.661023
 21
0.709882
 31
0.0
 12
0.656378
 22
0.726921
 32
0.0
 13
0.665668
 23
0.697491
 33
0.0
  0
SOLID
  5
53A
  8
0
 62
     7
 10
0.670313
 20
0.799721
 30
0.0
 11
0.665668
 21
0.791976
 31
0.0
 12
0.670313
 22
0.799721
 32
0.0
 13
0.665668
 23
0.768742
 33
0.0
  0
SOLID
  5
53B
  8
0
 62
     7
 10
0.659475
 20
0.542596
 30
0.0
 11
0.678054
 21
0.534851
 31
0.0
 12
0.659475
 22
0.542596
 32
0.0
 13
0.684247
 23
0.562732
 33
0.0
  0
SOLID
  5
53C
  8
0
 62
     7
 10
0.691989
 20
0.760998
 30
0.0
 11
0.696634
 21
0.773389
 31
0.0
 12
0.691989
 22
0.760998
 32
0.0
 13
0.702827
 23
0.791976
 33
0.0
  0
SOLID
  5
53D
  8
0
 62
     7
 10
0.665668
 20
0.863228
 30
0.0
 11
0.667216
 21
0.843092
 31
0.0
 12
0.665668
 22
0.863228
 32
0.0
 13
0.670313
 23
0.8307
 33
0.0
  0
SOLID
  5
53E
  8
0
 62
     7
 10
0.702827
 20
0.805917
 30
0.0
 11
0.702827
 21
0.81676
 31
0.0
 12
0.702827
 22
0.805917
 32
0.0
 13
0.696634
 23
0.838445
 33
0.0
  0
SOLID
  5
53F
  8
0
 62
     7
 10
0.792628
 20
0.805917
 30
0.0
 11
0.770952
 21
0.805917
 31
0.0
 12
0.792628
 22
0.805917
 32
0.0
 13
0.7725
 23
0.779585
 33
0.0
  0
SOLID
  5
540
  8
0
 62
     7
 10
0.801918
 20
0.793525
 30
0.0
 11
0.792628
 21
0.805917
 31
0.0
 12
0.801918
 22
0.793525
 32
0.0
 13
0.7725
 23
0.779585
 33
0.0
  0
SOLID
  5
541
  8
0
 62
     7
 10
0.801918
 20
0.77184
 30
0.0
 11
0.801918
 21
0.793525
 31
0.0
 12
0.801918
 22
0.77184
 32
0.0
 13
0.7725
 23
0.779585
 33
0.0
  0
SOLID
  5
542
  8
0
 62
     7
 10
0.599091
 20
0.592162
 30
0.0
 11
0.609929
 21
0.576673
 31
0.0
 12
0.599091
 22
0.592162
 32
0.0
 13
0.623864
 23
0.568928
 33
0.0
  0
SOLID
  5
543
  8
0
 62
     7
 10
0.730696
 20
0.672708
 30
0.0
 11
0.743083
 21
0.685099
 31
0.0
 12
0.730696
 22
0.672708
 32
0.0
 13
0.747728
 23
0.702138
 33
0.0
  0
SOLID
  5
544
  8
0
 62
     7
 10
0.794177
 20
0.753253
 30
0.0
 11
0.801918
 21
0.77184
 31
0.0
 12
0.794177
 22
0.753253
 32
0.0
 13
0.7725
 23
0.779585
 33
0.0
  0
SOLID
  5
545
  8
0
 62
     7
 10
0.722955
 20
0.906599
 30
0.0
 11
0.726051
 21
0.914343
 31
0.0
 12
0.722955
 22
0.906599
 32
0.0
 13
0.7276
 23
0.940675
 33
0.0
  0
SOLID
  5
546
  8
0
 62
     7
 10
0.753921
 20
0.773389
 30
0.0
 11
0.738438
 21
0.753253
 31
0.0
 12
0.753921
 22
0.773389
 32
0.0
 13
0.738438
 23
0.74241
 33
0.0
  0
SOLID
  5
547
  8
0
 62
     7
 10
0.662571
 20
0.760998
 30
0.0
 11
0.656378
 21
0.747057
 31
0.0
 12
0.662571
 22
0.760998
 32
0.0
 13
0.656378
 23
0.726921
 33
0.0
  0
SOLID
  5
548
  8
0
 62
     7
 10
0.738438
 20
0.74241
 30
0.0
 11
0.729148
 21
0.730019
 31
0.0
 12
0.738438
 22
0.74241
 32
0.0
 13
0.71831
 23
0.711431
 33
0.0
  0
SOLID
  5
549
  8
0
 62
     7
 10
0.674958
 20
0.651022
 30
0.0
 11
0.659475
 21
0.629337
 31
0.0
 12
0.674958
 22
0.651022
 32
0.0
 13
0.66412
 23
0.615397
 33
0.0
  0
SOLID
  5
54A
  8
0
 62
     7
 10
0.634702
 20
0.607652
 30
0.0
 11
0.608381
 21
0.61075
 31
0.0
 12
0.634702
 22
0.607652
 32
0.0
 13
0.599091
 23
0.592162
 33
0.0
  0
SOLID
  5
54B
  8
0
 62
     7
 10
0.634702
 20
0.607652
 30
0.0
 11
0.599091
 21
0.592162
 31
0.0
 12
0.634702
 22
0.607652
 32
0.0
 13
0.623864
 23
0.568928
 33
0.0
  0
SOLID
  5
54C
  8
0
 62
     7
 10
0.647088
 20
0.592162
 30
0.0
 11
0.634702
 21
0.607652
 31
0.0
 12
0.647088
 22
0.592162
 32
0.0
 13
0.623864
 23
0.568928
 33
0.0
  0
SOLID
  5
54D
  8
0
 62
     7
 10
0.647088
 20
0.592162
 30
0.0
 11
0.623864
 21
0.568928
 31
0.0
 12
0.647088
 22
0.592162
 32
0.0
 13
0.640895
 23
0.561183
 33
0.0
  0
SOLID
  5
54E
  8
0
 62
     7
 10
0.657926
 20
0.579771
 30
0.0
 11
0.647088
 21
0.592162
 31
0.0
 12
0.657926
 22
0.579771
 32
0.0
 13
0.640895
 23
0.561183
 33
0.0
  0
SOLID
  5
54F
  8
0
 62
     7
 10
0.657926
 20
0.579771
 30
0.0
 11
0.640895
 21
0.561183
 31
0.0
 12
0.657926
 22
0.579771
 32
0.0
 13
0.659475
 23
0.542596
 33
0.0
  0
SOLID
  5
550
  8
0
 62
     7
 10
0.657926
 20
0.579771
 30
0.0
 11
0.659475
 21
0.542596
 31
0.0
 12
0.657926
 22
0.579771
 32
0.0
 13
0.684247
 23
0.562732
 33
0.0
  0
SOLID
  5
551
  8
0
 62
     7
 10
0.657926
 20
0.579771
 30
0.0
 11
0.684247
 21
0.562732
 31
0.0
 12
0.657926
 22
0.579771
 32
0.0
 13
0.687344
 23
0.582869
 33
0.0
  0
SOLID
  5
552
  8
0
 62
     7
 10
0.667216
 20
0.59526
 30
0.0
 11
0.657926
 21
0.579771
 31
0.0
 12
0.667216
 22
0.59526
 32
0.0
 13
0.687344
 23
0.582869
 33
0.0
  0
SOLID
  5
553
  8
0
 62
     7
 10
0.667216
 20
0.59526
 30
0.0
 11
0.687344
 21
0.582869
 31
0.0
 12
0.667216
 22
0.59526
 32
0.0
 13
0.690441
 23
0.599907
 33
0.0
  0
SOLID
  5
554
  8
0
 62
     7
 10
0.66412
 20
0.615397
 30
0.0
 11
0.667216
 21
0.59526
 31
0.0
 12
0.66412
 22
0.615397
 32
0.0
 13
0.690441
 23
0.599907
 33
0.0
  0
SOLID
  5
555
  8
0
 62
     7
 10
0.66412
 20
0.615397
 30
0.0
 11
0.690441
 21
0.599907
 31
0.0
 12
0.66412
 22
0.615397
 32
0.0
 13
0.698182
 23
0.626239
 33
0.0
  0
SOLID
  5
556
  8
0
 62
     7
 10
0.674958
 20
0.651022
 30
0.0
 11
0.66412
 21
0.615397
 31
0.0
 12
0.674958
 22
0.651022
 32
0.0
 13
0.698182
 23
0.626239
 33
0.0
  0
SOLID
  5
557
  8
0
 62
     7
 10
0.674958
 20
0.651022
 30
0.0
 11
0.698182
 21
0.626239
 31
0.0
 12
0.674958
 22
0.651022
 32
0.0
 13
0.707472
 23
0.655669
 33
0.0
  0
SOLID
  5
558
  8
0
 62
     7
 10
0.7276
 20
0.940675
 30
0.0
 11
0.704375
 21
0.954616
 31
0.0
 12
0.7276
 22
0.940675
 32
0.0
 13
0.687344
 23
0.936029
 33
0.0
  0
SOLID
  5
559
  8
0
 62
     7
 10
0.775597
 20
0.737763
 30
0.0
 11
0.794177
 21
0.753253
 31
0.0
 12
0.775597
 22
0.737763
 32
0.0
 13
0.7725
 23
0.779585
 33
0.0
  0
SOLID
  5
55A
  8
0
 62
     7
 10
0.775597
 20
0.737763
 30
0.0
 11
0.7725
 21
0.779585
 31
0.0
 12
0.775597
 22
0.737763
 32
0.0
 13
0.753921
 23
0.773389
 33
0.0
  0
SOLID
  5
55B
  8
0
 62
     7
 10
0.775597
 20
0.737763
 30
0.0
 11
0.753921
 21
0.773389
 31
0.0
 12
0.775597
 22
0.737763
 32
0.0
 13
0.738438
 23
0.74241
 33
0.0
  0
SOLID
  5
55C
  8
0
 62
     7
 10
0.757017
 20
0.719176
 30
0.0
 11
0.775597
 21
0.737763
 31
0.0
 12
0.757017
 22
0.719176
 32
0.0
 13
0.738438
 23
0.74241
 33
0.0
  0
SOLID
  5
55D
  8
0
 62
     7
 10
0.757017
 20
0.719176
 30
0.0
 11
0.738438
 21
0.74241
 31
0.0
 12
0.757017
 22
0.719176
 32
0.0
 13
0.71831
 23
0.711431
 33
0.0
  0
SOLID
  5
55E
  8
0
 62
     7
 10
0.747728
 20
0.702138
 30
0.0
 11
0.757017
 21
0.719176
 31
0.0
 12
0.747728
 22
0.702138
 32
0.0
 13
0.71831
 23
0.711431
 33
0.0
  0
SOLID
  5
55F
  8
0
 62
     7
 10
0.747728
 20
0.702138
 30
0.0
 11
0.71831
 21
0.711431
 31
0.0
 12
0.747728
 22
0.702138
 32
0.0
 13
0.712117
 23
0.705235
 33
0.0
  0
SOLID
  5
560
  8
0
 62
     7
 10
0.730696
 20
0.672708
 30
0.0
 11
0.747728
 21
0.702138
 31
0.0
 12
0.730696
 22
0.672708
 32
0.0
 13
0.712117
 23
0.705235
 33
0.0
  0
SOLID
  5
561
  8
0
 62
     7
 10
0.730696
 20
0.672708
 30
0.0
 11
0.712117
 21
0.705235
 31
0.0
 12
0.730696
 22
0.672708
 32
0.0
 13
0.69973
 23
0.700589
 33
0.0
  0
SOLID
  5
562
  8
0
 62
     7
 10
0.665668
 20
0.768742
 30
0.0
 11
0.662571
 21
0.760998
 31
0.0
 12
0.665668
 22
0.768742
 32
0.0
 13
0.656378
 23
0.726921
 33
0.0
  0
SOLID
  5
563
  8
0
 62
     7
 10
0.670313
 20
0.680452
 30
0.0
 11
0.674958
 21
0.651022
 31
0.0
 12
0.670313
 22
0.680452
 32
0.0
 13
0.707472
 23
0.655669
 33
0.0
  0
SOLID
  5
564
  8
0
 62
     7
 10
0.707472
 20
0.655669
 30
0.0
 11
0.730696
 21
0.672708
 31
0.0
 12
0.707472
 22
0.655669
 32
0.0
 13
0.69973
 23
0.700589
 33
0.0
  0
SOLID
  5
565
  8
0
 62
     7
 10
0.670313
 20
0.680452
 30
0.0
 11
0.707472
 21
0.655669
 31
0.0
 12
0.670313
 22
0.680452
 32
0.0
 13
0.69973
 23
0.700589
 33
0.0
  0
SOLID
  5
566
  8
0
 62
     7
 10
0.665668
 20
0.697491
 30
0.0
 11
0.670313
 21
0.680452
 31
0.0
 12
0.665668
 22
0.697491
 32
0.0
 13
0.69973
 23
0.700589
 33
0.0
  0
SOLID
  5
567
  8
0
 62
     7
 10
0.665668
 20
0.697491
 30
0.0
 11
0.69973
 21
0.700589
 31
0.0
 12
0.665668
 22
0.697491
 32
0.0
 13
0.695086
 23
0.711431
 33
0.0
  0
SOLID
  5
568
  8
0
 62
     7
 10
0.656378
 20
0.726921
 30
0.0
 11
0.665668
 21
0.697491
 31
0.0
 12
0.656378
 22
0.726921
 32
0.0
 13
0.695086
 23
0.711431
 33
0.0
  0
SOLID
  5
569
  8
0
 62
     7
 10
0.656378
 20
0.726921
 30
0.0
 11
0.695086
 21
0.711431
 31
0.0
 12
0.656378
 22
0.726921
 32
0.0
 13
0.687344
 23
0.743959
 33
0.0
  0
SOLID
  5
56A
  8
0
 62
     7
 10
0.665668
 20
0.768742
 30
0.0
 11
0.656378
 21
0.726921
 31
0.0
 12
0.665668
 22
0.768742
 32
0.0
 13
0.687344
 23
0.743959
 33
0.0
  0
SOLID
  5
56B
  8
0
 62
     7
 10
0.665668
 20
0.768742
 30
0.0
 11
0.687344
 21
0.743959
 31
0.0
 12
0.665668
 22
0.768742
 32
0.0
 13
0.691989
 23
0.760998
 33
0.0
  0
SOLID
  5
56C
  8
0
 62
     7
 10
0.665668
 20
0.768742
 30
0.0
 11
0.691989
 21
0.760998
 31
0.0
 12
0.665668
 22
0.768742
 32
0.0
 13
0.702827
 23
0.791976
 33
0.0
  0
SOLID
  5
56D
  8
0
 62
     7
 10
0.670313
 20
0.799721
 30
0.0
 11
0.665668
 21
0.768742
 31
0.0
 12
0.670313
 22
0.799721
 32
0.0
 13
0.702827
 23
0.791976
 33
0.0
  0
SOLID
  5
56E
  8
0
 62
     7
 10
0.670313
 20
0.799721
 30
0.0
 11
0.702827
 21
0.791976
 31
0.0
 12
0.670313
 22
0.799721
 32
0.0
 13
0.702827
 23
0.805917
 33
0.0
  0
SOLID
  5
56F
  8
0
 62
     7
 10
0.670313
 20
0.8307
 30
0.0
 11
0.670313
 21
0.799721
 31
0.0
 12
0.670313
 22
0.8307
 32
0.0
 13
0.702827
 23
0.805917
 33
0.0
  0
SOLID
  5
570
  8
0
 62
     7
 10
0.670313
 20
0.8307
 30
0.0
 11
0.702827
 21
0.805917
 31
0.0
 12
0.670313
 22
0.8307
 32
0.0
 13
0.696634
 23
0.838445
 33
0.0
  0
SOLID
  5
571
  8
0
 62
     7
 10
0.670313
 20
0.8307
 30
0.0
 11
0.696634
 21
0.838445
 31
0.0
 12
0.670313
 22
0.8307
 32
0.0
 13
0.696634
 23
0.853934
 33
0.0
  0
SOLID
  5
572
  8
0
 62
     7
 10
0.665668
 20
0.863228
 30
0.0
 11
0.670313
 21
0.8307
 31
0.0
 12
0.665668
 22
0.863228
 32
0.0
 13
0.696634
 23
0.853934
 33
0.0
  0
SOLID
  5
573
  8
0
 62
     7
 10
0.665668
 20
0.863228
 30
0.0
 11
0.696634
 21
0.853934
 31
0.0
 12
0.665668
 22
0.863228
 32
0.0
 13
0.704375
 23
0.881815
 33
0.0
  0
SOLID
  5
574
  8
0
 62
     7
 10
0.665668
 20
0.884913
 30
0.0
 11
0.665668
 21
0.863228
 31
0.0
 12
0.665668
 22
0.884913
 32
0.0
 13
0.704375
 23
0.881815
 33
0.0
  0
SOLID
  5
575
  8
0
 62
     7
 10
0.681151
 20
0.906599
 30
0.0
 11
0.665668
 21
0.884913
 31
0.0
 12
0.681151
 22
0.906599
 32
0.0
 13
0.704375
 23
0.881815
 33
0.0
  0
SOLID
  5
576
  8
0
 62
     7
 10
0.687344
 20
0.915892
 30
0.0
 11
0.681151
 21
0.906599
 31
0.0
 12
0.687344
 22
0.915892
 32
0.0
 13
0.704375
 23
0.881815
 33
0.0
  0
SOLID
  5
577
  8
0
 62
     7
 10
0.687344
 20
0.915892
 30
0.0
 11
0.704375
 21
0.881815
 31
0.0
 12
0.687344
 22
0.915892
 32
0.0
 13
0.722955
 23
0.906599
 33
0.0
  0
SOLID
  5
578
  8
0
 62
     7
 10
0.722955
 20
0.906599
 30
0.0
 11
0.7276
 21
0.940675
 31
0.0
 12
0.722955
 22
0.906599
 32
0.0
 13
0.687344
 23
0.936029
 33
0.0
  0
SOLID
  5
579
  8
0
 62
     7
 10
0.687344
 20
0.915892
 30
0.0
 11
0.722955
 21
0.906599
 31
0.0
 12
0.687344
 22
0.915892
 32
0.0
 13
0.687344
 23
0.936029
 33
0.0
  0
SOLID
  5
57A
  8
0
 62
     7
 10
0.620767
 20
0.847739
 30
0.0
 11
0.617671
 21
0.84619
 31
0.0
 12
0.620767
 22
0.847739
 32
0.0
 13
0.611477
 23
0.835347
 33
0.0
  0
SOLID
  5
57B
  8
0
 62
     7
 10
0.619219
 20
0.661865
 30
0.0
 11
0.633154
 21
0.655669
 31
0.0
 12
0.619219
 22
0.661865
 32
0.0
 13
0.637799
 23
0.658767
 33
0.0
  0
SOLID
  5
57C
  8
0
 62
     7
 10
0.472131
 20
0.793525
 30
0.0
 11
0.475227
 21
0.784232
 31
0.0
 12
0.472131
 22
0.793525
 32
0.0
 13
0.479872
 23
0.774938
 33
0.0
  0
SOLID
  5
57D
  8
0
 62
     7
 10
0.571222
 20
0.799721
 30
0.0
 11
0.561932
 21
0.807466
 31
0.0
 12
0.571222
 22
0.799721
 32
0.0
 13
0.551094
 23
0.807466
 33
0.0
  0
SOLID
  5
57E
  8
0
 62
     7
 10
0.430327
 20
0.833798
 30
0.0
 11
0.439616
 21
0.826053
 31
0.0
 12
0.430327
 22
0.833798
 32
0.0
 13
0.448906
 23
0.821406
 33
0.0
  0
SOLID
  5
57F
  8
0
 62
     7
 10
0.616122
 20
0.66961
 30
0.0
 11
0.619219
 21
0.661865
 31
0.0
 12
0.616122
 22
0.66961
 32
0.0
 13
0.637799
 23
0.658767
 33
0.0
  0
SOLID
  5
580
  8
0
 62
     7
 10
0.569673
 20
0.736214
 30
0.0
 11
0.578963
 21
0.72847
 31
0.0
 12
0.569673
 22
0.736214
 32
0.0
 13
0.589801
 23
0.722274
 33
0.0
  0
SOLID
  5
581
  8
0
 62
     7
 10
0.430327
 20
0.858581
 30
0.0
 11
0.424133
 21
0.84619
 31
0.0
 12
0.430327
 22
0.858581
 32
0.0
 13
0.430327
 23
0.833798
 33
0.0
  0
SOLID
  5
582
  8
0
 62
     7
 10
0.63625
 20
0.839994
 30
0.0
 11
0.620767
 21
0.847739
 31
0.0
 12
0.63625
 22
0.839994
 32
0.0
 13
0.611477
 23
0.835347
 33
0.0
  0
SOLID
  5
583
  8
0
 62
     7
 10
0.637799
 20
0.658767
 30
0.0
 11
0.643992
 21
0.672708
 31
0.0
 12
0.637799
 22
0.658767
 32
0.0
 13
0.64554
 23
0.68355
 33
0.0
  0
SOLID
  5
584
  8
0
 62
     7
 10
0.456648
 20
0.857032
 30
0.0
 11
0.442713
 21
0.866326
 31
0.0
 12
0.456648
 22
0.857032
 32
0.0
 13
0.430327
 23
0.858581
 33
0.0
  0
SOLID
  5
585
  8
0
 62
     7
 10
0.608381
 20
0.802819
 30
0.0
 11
0.599091
 21
0.793525
 31
0.0
 12
0.608381
 22
0.802819
 32
0.0
 13
0.595994
 23
0.778036
 33
0.0
  0
SOLID
  5
586
  8
0
 62
     7
 10
0.532514
 20
0.7579
 30
0.0
 11
0.541804
 21
0.751704
 31
0.0
 12
0.532514
 22
0.7579
 32
0.0
 13
0.557287
 23
0.743959
 33
0.0
  0
SOLID
  5
587
  8
0
 62
     7
 10
0.630057
 20
0.781134
 30
0.0
 11
0.63625
 21
0.791976
 31
0.0
 12
0.630057
 22
0.781134
 32
0.0
 13
0.639347
 23
0.809015
 33
0.0
  0
SOLID
  5
588
  8
0
 62
     7
 10
0.639347
 20
0.809015
 30
0.0
 11
0.639347
 21
0.821406
 31
0.0
 12
0.639347
 22
0.809015
 32
0.0
 13
0.63625
 23
0.839994
 33
0.0
  0
SOLID
  5
589
  8
0
 62
     7
 10
0.510838
 20
0.805917
 30
0.0
 11
0.5
 21
0.824504
 31
0.0
 12
0.510838
 22
0.805917
 32
0.0
 13
0.487614
 23
0.827602
 33
0.0
  0
SOLID
  5
58A
  8
0
 62
     7
 10
0.616122
 20
0.66961
 30
0.0
 11
0.637799
 21
0.658767
 31
0.0
 12
0.616122
 22
0.66961
 32
0.0
 13
0.64554
 23
0.68355
 33
0.0
  0
SOLID
  5
58B
  8
0
 62
     7
 10
0.571222
 20
0.799721
 30
0.0
 11
0.551094
 21
0.807466
 31
0.0
 12
0.571222
 22
0.799721
 32
0.0
 13
0.538707
 23
0.804368
 33
0.0
  0
SOLID
  5
58C
  8
0
 62
     7
 10
0.479872
 20
0.774938
 30
0.0
 11
0.496903
 21
0.767193
 31
0.0
 12
0.479872
 22
0.774938
 32
0.0
 13
0.512386
 23
0.765644
 33
0.0
  0
SOLID
  5
58D
  8
0
 62
     7
 10
0.63625
 20
0.839994
 30
0.0
 11
0.611477
 21
0.835347
 31
0.0
 12
0.63625
 22
0.839994
 32
0.0
 13
0.611477
 23
0.81676
 33
0.0
  0
SOLID
  5
58E
  8
0
 62
     7
 10
0.639347
 20
0.809015
 30
0.0
 11
0.63625
 21
0.839994
 31
0.0
 12
0.639347
 22
0.809015
 32
0.0
 13
0.611477
 23
0.81676
 33
0.0
  0
SOLID
  5
58F
  8
0
 62
     7
 10
0.639347
 20
0.809015
 30
0.0
 11
0.611477
 21
0.81676
 31
0.0
 12
0.639347
 22
0.809015
 32
0.0
 13
0.608381
 23
0.802819
 33
0.0
  0
SOLID
  5
590
  8
0
 62
     7
 10
0.630057
 20
0.781134
 30
0.0
 11
0.639347
 21
0.809015
 31
0.0
 12
0.630057
 22
0.781134
 32
0.0
 13
0.608381
 23
0.802819
 33
0.0
  0
SOLID
  5
591
  8
0
 62
     7
 10
0.630057
 20
0.781134
 30
0.0
 11
0.608381
 21
0.802819
 31
0.0
 12
0.630057
 22
0.781134
 32
0.0
 13
0.595994
 23
0.778036
 33
0.0
  0
SOLID
  5
592
  8
0
 62
     7
 10
0.623864
 20
0.767193
 30
0.0
 11
0.630057
 21
0.781134
 31
0.0
 12
0.623864
 22
0.767193
 32
0.0
 13
0.595994
 23
0.778036
 33
0.0
  0
SOLID
  5
593
  8
0
 62
     7
 10
0.623864
 20
0.767193
 30
0.0
 11
0.595994
 21
0.778036
 31
0.0
 12
0.623864
 22
0.767193
 32
0.0
 13
0.589801
 23
0.774938
 33
0.0
  0
SOLID
  5
594
  8
0
 62
     7
 10
0.456648
 20
0.857032
 30
0.0
 11
0.430327
 21
0.858581
 31
0.0
 12
0.456648
 22
0.857032
 32
0.0
 13
0.430327
 23
0.833798
 33
0.0
  0
SOLID
  5
595
  8
0
 62
     7
 10
0.456648
 20
0.857032
 30
0.0
 11
0.430327
 21
0.833798
 31
0.0
 12
0.456648
 22
0.857032
 32
0.0
 13
0.448906
 23
0.821406
 33
0.0
  0
SOLID
  5
596
  8
0
 62
     7
 10
0.473679
 20
0.841543
 30
0.0
 11
0.456648
 21
0.857032
 31
0.0
 12
0.473679
 22
0.841543
 32
0.0
 13
0.448906
 23
0.821406
 33
0.0
  0
SOLID
  5
597
  8
0
 62
     7
 10
0.473679
 20
0.841543
 30
0.0
 11
0.448906
 21
0.821406
 31
0.0
 12
0.473679
 22
0.841543
 32
0.0
 13
0.465937
 23
0.807466
 33
0.0
  0
SOLID
  5
598
  8
0
 62
     7
 10
0.487614
 20
0.827602
 30
0.0
 11
0.473679
 21
0.841543
 31
0.0
 12
0.487614
 22
0.827602
 32
0.0
 13
0.465937
 23
0.807466
 33
0.0
  0
SOLID
  5
599
  8
0
 62
     7
 10
0.487614
 20
0.827602
 30
0.0
 11
0.465937
 21
0.807466
 31
0.0
 12
0.487614
 22
0.827602
 32
0.0
 13
0.472131
 23
0.793525
 33
0.0
  0
SOLID
  5
59A
  8
0
 62
     7
 10
0.620767
 20
0.750155
 30
0.0
 11
0.623864
 21
0.767193
 31
0.0
 12
0.620767
 22
0.750155
 32
0.0
 13
0.589801
 23
0.774938
 33
0.0
  0
SOLID
  5
59B
  8
0
 62
     7
 10
0.608381
 20
0.69904
 30
0.0
 11
0.616122
 21
0.66961
 31
0.0
 12
0.608381
 22
0.69904
 32
0.0
 13
0.64554
 23
0.68355
 33
0.0
  0
SOLID
  5
59C
  8
0
 62
     7
 10
0.608381
 20
0.69904
 30
0.0
 11
0.64554
 21
0.68355
 31
0.0
 12
0.608381
 22
0.69904
 32
0.0
 13
0.642443
 23
0.702138
 33
0.0
  0
SOLID
  5
59D
  8
0
 62
     7
 10
0.608381
 20
0.69904
 30
0.0
 11
0.642443
 21
0.702138
 31
0.0
 12
0.608381
 22
0.69904
 32
0.0
 13
0.630057
 23
0.720725
 33
0.0
  0
SOLID
  5
59E
  8
0
 62
     7
 10
0.600639
 20
0.714529
 30
0.0
 11
0.608381
 21
0.69904
 31
0.0
 12
0.600639
 22
0.714529
 32
0.0
 13
0.630057
 23
0.720725
 33
0.0
  0
SOLID
  5
59F
  8
0
 62
     7
 10
0.600639
 20
0.714529
 30
0.0
 11
0.630057
 21
0.720725
 31
0.0
 12
0.600639
 22
0.714529
 32
0.0
 13
0.620767
 23
0.739312
 33
0.0
  0
SOLID
  5
5A0
  8
0
 62
     7
 10
0.589801
 20
0.722274
 30
0.0
 11
0.600639
 21
0.714529
 31
0.0
 12
0.589801
 22
0.722274
 32
0.0
 13
0.620767
 23
0.739312
 33
0.0
  0
SOLID
  5
5A1
  8
0
 62
     7
 10
0.571222
 20
0.799721
 30
0.0
 11
0.538707
 21
0.804368
 31
0.0
 12
0.571222
 22
0.799721
 32
0.0
 13
0.530966
 23
0.802819
 33
0.0
  0
SOLID
  5
5A2
  8
0
 62
     7
 10
0.510838
 20
0.805917
 30
0.0
 11
0.487614
 21
0.827602
 31
0.0
 12
0.510838
 22
0.805917
 32
0.0
 13
0.472131
 23
0.793525
 33
0.0
  0
SOLID
  5
5A3
  8
0
 62
     7
 10
0.589801
 20
0.722274
 30
0.0
 11
0.620767
 21
0.739312
 31
0.0
 12
0.589801
 22
0.722274
 32
0.0
 13
0.620767
 23
0.750155
 33
0.0
  0
SOLID
  5
5A4
  8
0
 62
     7
 10
0.510838
 20
0.805917
 30
0.0
 11
0.472131
 21
0.793525
 31
0.0
 12
0.510838
 22
0.805917
 32
0.0
 13
0.479872
 23
0.774938
 33
0.0
  0
SOLID
  5
5A5
  8
0
 62
     7
 10
0.510838
 20
0.805917
 30
0.0
 11
0.479872
 21
0.774938
 31
0.0
 12
0.510838
 22
0.805917
 32
0.0
 13
0.512386
 23
0.765644
 33
0.0
  0
SOLID
  5
5A6
  8
0
 62
     7
 10
0.530966
 20
0.802819
 30
0.0
 11
0.510838
 21
0.805917
 31
0.0
 12
0.530966
 22
0.802819
 32
0.0
 13
0.512386
 23
0.765644
 33
0.0
  0
SOLID
  5
5A7
  8
0
 62
     7
 10
0.530966
 20
0.802819
 30
0.0
 11
0.512386
 21
0.765644
 31
0.0
 12
0.530966
 22
0.802819
 32
0.0
 13
0.532514
 23
0.7579
 33
0.0
  0
SOLID
  5
5A8
  8
0
 62
     7
 10
0.589801
 20
0.722274
 30
0.0
 11
0.620767
 21
0.750155
 31
0.0
 12
0.589801
 22
0.722274
 32
0.0
 13
0.589801
 23
0.774938
 33
0.0
  0
SOLID
  5
5A9
  8
0
 62
     7
 10
0.569673
 20
0.736214
 30
0.0
 11
0.589801
 21
0.722274
 31
0.0
 12
0.569673
 22
0.736214
 32
0.0
 13
0.589801
 23
0.774938
 33
0.0
  0
SOLID
  5
5AA
  8
0
 62
     7
 10
0.557287
 20
0.743959
 30
0.0
 11
0.569673
 21
0.736214
 31
0.0
 12
0.557287
 22
0.743959
 32
0.0
 13
0.589801
 23
0.774938
 33
0.0
  0
SOLID
  5
5AB
  8
0
 62
     7
 10
0.557287
 20
0.743959
 30
0.0
 11
0.589801
 21
0.774938
 31
0.0
 12
0.557287
 22
0.743959
 32
0.0
 13
0.580511
 23
0.782683
 33
0.0
  0
SOLID
  5
5AC
  8
0
 62
     7
 10
0.580511
 20
0.782683
 30
0.0
 11
0.571222
 21
0.799721
 31
0.0
 12
0.580511
 22
0.782683
 32
0.0
 13
0.530966
 23
0.802819
 33
0.0
  0
SOLID
  5
5AD
  8
0
 62
     7
 10
0.580511
 20
0.782683
 30
0.0
 11
0.530966
 21
0.802819
 31
0.0
 12
0.580511
 22
0.782683
 32
0.0
 13
0.532514
 23
0.7579
 33
0.0
  0
SOLID
  5
5AE
  8
0
 62
     7
 10
0.557287
 20
0.743959
 30
0.0
 11
0.580511
 21
0.782683
 31
0.0
 12
0.557287
 22
0.743959
 32
0.0
 13
0.532514
 23
0.7579
 33
0.0
  0
SOLID
  5
5AF
  8
0
 62
     7
 10
0.201015
 20
0.01104
 30
0.0
 11
0.21031
 21
0.01414
 31
0.0
 12
0.201015
 22
0.01104
 32
0.0
 13
0.216507
 23
0.018789
 33
0.0
  0
SOLID
  5
5B0
  8
0
 62
     7
 10
0.348184
 20
0.01104
 30
0.0
 11
0.363675
 21
0.01104
 31
0.0
 12
0.348184
 22
0.01104
 32
0.0
 13
0.369872
 23
0.018789
 33
0.0
  0
SOLID
  5
5B1
  8
0
 62
     7
 10
0.267628
 20
0.020339
 30
0.0
 11
0.286218
 21
0.01724
 31
0.0
 12
0.267628
 22
0.020339
 32
0.0
 13
0.295513
 23
0.018789
 33
0.0
  0
SOLID
  5
5B2
  8
0
 62
     7
 10
0.196368
 20
0.038937
 30
0.0
 11
0.185524
 21
0.01724
 31
0.0
 12
0.196368
 22
0.038937
 32
0.0
 13
0.201015
 23
0.01104
 33
0.0
  0
SOLID
  5
5B3
  8
0
 62
     7
 10
0.196368
 20
0.038937
 30
0.0
 11
0.201015
 21
0.01104
 31
0.0
 12
0.196368
 22
0.038937
 32
0.0
 13
0.216507
 23
0.018789
 33
0.0
  0
SOLID
  5
5B4
  8
0
 62
     7
 10
0.295513
 20
0.018789
 30
0.0
 11
0.311004
 21
0.020339
 31
0.0
 12
0.295513
 22
0.018789
 32
0.0
 13
0.324947
 23
0.023439
 33
0.0
  0
SOLID
  5
5B5
  8
0
 62
     7
 10
0.348184
 20
0.01104
 30
0.0
 11
0.369872
 21
0.018789
 31
0.0
 12
0.348184
 22
0.01104
 32
0.0
 13
0.365225
 23
0.035837
 33
0.0
  0
SOLID
  5
5B6
  8
0
 62
     7
 10
0.208761
 20
0.048235
 30
0.0
 11
0.196368
 21
0.038937
 31
0.0
 12
0.208761
 22
0.048235
 32
0.0
 13
0.216507
 23
0.018789
 33
0.0
  0
SOLID
  5
5B7
  8
0
 62
     7
 10
0.208761
 20
0.048235
 30
0.0
 11
0.216507
 21
0.018789
 31
0.0
 12
0.208761
 22
0.048235
 32
0.0
 13
0.2289
 23
0.023439
 33
0.0
  0
SOLID
  5
5B8
  8
0
 62
     7
 10
0.225802
 20
0.051335
 30
0.0
 11
0.208761
 21
0.048235
 31
0.0
 12
0.225802
 22
0.051335
 32
0.0
 13
0.2289
 23
0.023439
 33
0.0
  0
SOLID
  5
5B9
  8
0
 62
     7
 10
0.244391
 20
0.051335
 30
0.0
 11
0.225802
 21
0.051335
 31
0.0
 12
0.244391
 22
0.051335
 32
0.0
 13
0.2289
 23
0.023439
 33
0.0
  0
SOLID
  5
5BA
  8
0
 62
     7
 10
0.244391
 20
0.051335
 30
0.0
 11
0.2289
 21
0.023439
 31
0.0
 12
0.244391
 22
0.051335
 32
0.0
 13
0.242842
 23
0.020339
 33
0.0
  0
SOLID
  5
5BB
  8
0
 62
     7
 10
0.244391
 20
0.051335
 30
0.0
 11
0.242842
 21
0.020339
 31
0.0
 12
0.244391
 22
0.051335
 32
0.0
 13
0.261432
 23
0.020339
 33
0.0
  0
SOLID
  5
5BC
  8
0
 62
     7
 10
0.269178
 20
0.054435
 30
0.0
 11
0.244391
 21
0.051335
 31
0.0
 12
0.269178
 22
0.054435
 32
0.0
 13
0.261432
 23
0.020339
 33
0.0
  0
SOLID
  5
5BD
  8
0
 62
     7
 10
0.269178
 20
0.054435
 30
0.0
 11
0.261432
 21
0.020339
 31
0.0
 12
0.269178
 22
0.054435
 32
0.0
 13
0.267628
 23
0.020339
 33
0.0
  0
SOLID
  5
5BE
  8
0
 62
     7
 10
0.332693
 20
0.020339
 30
0.0
 11
0.348184
 21
0.01104
 31
0.0
 12
0.332693
 22
0.020339
 32
0.0
 13
0.365225
 23
0.035837
 33
0.0
  0
SOLID
  5
5BF
  8
0
 62
     7
 10
0.332693
 20
0.020339
 30
0.0
 11
0.365225
 21
0.035837
 31
0.0
 12
0.332693
 22
0.020339
 32
0.0
 13
0.348184
 23
0.052885
 33
0.0
  0
SOLID
  5
5C0
  8
0
 62
     7
 10
0.332693
 20
0.020339
 30
0.0
 11
0.348184
 21
0.052885
 31
0.0
 12
0.332693
 22
0.020339
 32
0.0
 13
0.31875
 23
0.054435
 33
0.0
  0
SOLID
  5
5C1
  8
0
 62
     7
 10
0.324947
 20
0.023439
 30
0.0
 11
0.332693
 21
0.020339
 31
0.0
 12
0.324947
 22
0.023439
 32
0.0
 13
0.31875
 23
0.054435
 33
0.0
  0
SOLID
  5
5C2
  8
0
 62
     7
 10
0.295513
 20
0.018789
 30
0.0
 11
0.324947
 21
0.023439
 31
0.0
 12
0.295513
 22
0.018789
 32
0.0
 13
0.31875
 23
0.054435
 33
0.0
  0
SOLID
  5
5C3
  8
0
 62
     7
 10
0.295513
 20
0.018789
 30
0.0
 11
0.31875
 21
0.054435
 31
0.0
 12
0.295513
 22
0.018789
 32
0.0
 13
0.295513
 23
0.054435
 33
0.0
  0
SOLID
  5
5C4
  8
0
 62
     7
 10
0.267628
 20
0.020339
 30
0.0
 11
0.295513
 21
0.018789
 31
0.0
 12
0.267628
 22
0.020339
 32
0.0
 13
0.295513
 23
0.054435
 33
0.0
  0
SOLID
  5
5C5
  8
0
 62
     7
 10
0.269178
 20
0.054435
 30
0.0
 11
0.267628
 21
0.020339
 31
0.0
 12
0.269178
 22
0.054435
 32
0.0
 13
0.295513
 23
0.054435
 33
0.0
  0
ENDSEC
  0
EOF
