  0
SECTION
  2
HEADER
  9
$ACADVER
  1
AC1009
  9
$DWGCODEPAGE
  3
ansi_1252
  9
$INSBASE
 10
0.0
 20
0.0
 30
0.0
  9
$EXTMIN
 10
-0.050003
 20
-0.05
 30
0.0
  9
$EXTMAX
 10
0.450079
 20
0.45
 30
0.0
  9
$LIMMIN
 10
0.0
 20
0.0
  9
$LIMMAX
 10
12.0
 20
9.0
  9
$ORTHOMODE
 70
     0
  9
$REGENMODE
 70
     1
  9
$FILLMODE
 70
     1
  9
$QTEXTMODE
 70
     0
  9
$MIRRTEXT
 70
     1
  9
$DRAGMODE
 70
     2
  9
$LTSCALE
 40
1.0
  9
$OSMODE
 70
    37
  9
$ATTMODE
 70
     1
  9
$TEXTSIZE
 40
0.2
  9
$TRACEWID
 40
0.05
  9
$TEXTSTYLE
  7
STANDARD
  9
$CLAYER
  8
0
  9
$CELTYPE
  6
BYLAYER
  9
$CECOLOR
 62
   256
  9
$DIMSCALE
 40
1.0
  9
$DIMASZ
 40
0.18
  9
$DIMEXO
 40
0.0625
  9
$DIMDLI
 40
0.38
  9
$DIMRND
 40
0.0
  9
$DIMDLE
 40
0.0
  9
$DIMEXE
 40
0.18
  9
$DIMTP
 40
0.0
  9
$DIMTM
 40
0.0
  9
$DIMTXT
 40
0.18
  9
$DIMCEN
 40
0.09
  9
$DIMTSZ
 40
0.0
  9
$DIMTOL
 70
     0
  9
$DIMLIM
 70
     0
  9
$DIMTIH
 70
     1
  9
$DIMTOH
 70
     1
  9
$DIMSE1
 70
     0
  9
$DIMSE2
 70
     0
  9
$DIMTAD
 70
     0
  9
$DIMZIN
 70
     0
  9
$DIMBLK
  1

  9
$DIMASO
 70
     1
  9
$DIMSHO
 70
     1
  9
$DIMPOST
  1

  9
$DIMAPOST
  1

  9
$DIMALT
 70
     0
  9
$DIMALTD
 70
     2
  9
$DIMALTF
 40
25.4
  9
$DIMLFAC
 40
1.0
  9
$DIMTOFL
 70
     0
  9
$DIMTVP
 40
0.0
  9
$DIMTIX
 70
     0
  9
$DIMSOXD
 70
     0
  9
$DIMSAH
 70
     0
  9
$DIMBLK1
  1

  9
$DIMBLK2
  1

  9
$DIMSTYLE
  2
STANDARD
  9
$DIMCLRD
 70
     0
  9
$DIMCLRE
 70
     0
  9
$DIMCLRT
 70
     0
  9
$DIMTFAC
 40
1.0
  9
$DIMGAP
 40
0.09
  9
$LUNITS
 70
     2
  9
$LUPREC
 70
     4
  9
$SKETCHINC
 40
0.1
  9
$FILLETRAD
 40
0.5
  9
$AUNITS
 70
     0
  9
$AUPREC
 70
     0
  9
$MENU
  1
.
  9
$ELEVATION
 40
0.0
  9
$PELEVATION
 40
0.0
  9
$THICKNESS
 40
0.0
  9
$LIMCHECK
 70
     0
  9
$CHAMFERA
 40
0.5
  9
$CHAMFERB
 40
0.5
  9
$SKPOLY
 70
     0
  9
$TDCREATE
 40
2454853.380174248
  9
$TDUPDATE
 40
2454853.380418565
  9
$TDINDWG
 40
0.0002324074
  9
$TDUSRTIMER
 40
0.0000000116
  9
$USRTIMER
 70
     1
  9
$ANGBASE
 50
0.0
  9
$ANGDIR
 70
     0
  9
$PDMODE
 70
     0
  9
$PDSIZE
 40
0.0
  9
$PLINEWID
 40
0.0
  9
$COORDS
 70
     1
  9
$SPLFRAME
 70
     0
  9
$SPLINETYPE
 70
     6
  9
$SPLINESEGS
 70
     8
  9
$ATTDIA
 70
     0
  9
$ATTREQ
 70
     1
  9
$HANDLING
 70
     1
  9
$HANDSEED
  5
67A
  9
$SURFTAB1
 70
     6
  9
$SURFTAB2
 70
     6
  9
$SURFTYPE
 70
     6
  9
$SURFU
 70
     6
  9
$SURFV
 70
     6
  9
$UCSNAME
  2

  9
$UCSORG
 10
0.0
 20
0.0
 30
0.0
  9
$UCSXDIR
 10
1.0
 20
0.0
 30
0.0
  9
$UCSYDIR
 10
0.0
 20
1.0
 30
0.0
  9
$PUCSNAME
  2

  9
$PUCSORG
 10
0.0
 20
0.0
 30
0.0
  9
$PUCSXDIR
 10
1.0
 20
0.0
 30
0.0
  9
$PUCSYDIR
 10
0.0
 20
1.0
 30
0.0
  9
$USERI1
 70
     0
  9
$USERI2
 70
     0
  9
$USERI3
 70
     0
  9
$USERI4
 70
     0
  9
$USERI5
 70
     0
  9
$USERR1
 40
0.0
  9
$USERR2
 40
0.0
  9
$USERR3
 40
0.0
  9
$USERR4
 40
0.0
  9
$USERR5
 40
0.0
  9
$WORLDVIEW
 70
     1
  9
$SHADEDGE
 70
     3
  9
$SHADEDIF
 70
    70
  9
$TILEMODE
 70
     1
  9
$MAXACTVP
 70
    64
  9
$PLIMCHECK
 70
     0
  9
$PEXTMIN
 10
1.000000E+20
 20
1.000000E+20
 30
1.000000E+20
  9
$PEXTMAX
 10
-1.000000E+20
 20
-1.000000E+20
 30
-1.000000E+20
  9
$PLIMMIN
 10
0.0
 20
0.0
  9
$PLIMMAX
 10
12.0
 20
9.0
  9
$UNITMODE
 70
     0
  9
$VISRETAIN
 70
     1
  9
$PLINEGEN
 70
     0
  9
$PSLTSCALE
 70
     1
  0
ENDSEC
  0
SECTION
  2
TABLES
  0
TABLE
  2
VPORT
 70
     1
  0
VPORT
  2
*ACTIVE
 70
     0
 10
0.0
 20
0.0
 11
1.0
 21
1.0
 12
0.128976
 22
0.2
 13
0.0
 23
0.0
 14
1.0
 24
1.0
 15
0.0
 25
0.0
 16
0.0
 26
0.0
 36
1.0
 17
0.0
 27
0.0
 37
0.0
 40
0.44
 41
1.53699
 42
50.0
 43
0.0
 44
0.0
 50
0.0
 51
0.0
 71
     0
 72
   100
 73
     1
 74
     1
 75
     0
 76
     0
 77
     0
 78
     0
  0
ENDTAB
  0
TABLE
  2
LTYPE
 70
    17
  0
LTYPE
  2
CONTINUOUS
 70
     0
  3
Solid line
 72
    65
 73
     0
 40
0.0
  0
ENDTAB
  0
TABLE
  2
LAYER
 70
     1
  0
LAYER
  2
0
 70
     0
 62
     7
  6
Solid_1
  0
ENDTAB
  0
TABLE
  2
STYLE
 70
     1
  0
STYLE
  2
STANDARD
 70
     0
 40
0.0
 41
1.0
 50
0.0
 71
     0
 42
0.2
  3
txt
  4

  0
ENDTAB
  0
TABLE
  2
VIEW
 70
     0
  0
ENDTAB
  0
TABLE
  2
UCS
 70
     0
  0
ENDTAB
  0
TABLE
  2
APPID
 70
     6
  0
APPID
  2
ACAD
 70
     0
  0
APPID
  2
AVE_ENTITY_MATERIAL
 70
     0
  0
APPID
  2
AVE_MATERIAL
 70
     0
  0
APPID
  2
AVE_FINISH
 70
     0
  0
APPID
  2
AVE_GLOBAL
 70
     0
  0
APPID
  2
AVE_RENDER
 70
     0
  0
ENDTAB
  0
TABLE
  2
DIMSTYLE
 70
     1
  0
DIMSTYLE
  2
STANDARD
 70
     0
  3

  4

  5

  6

  7

 40
1.0
 41
0.18
 42
0.0625
 43
0.38
 44
0.18
 45
0.0
 46
0.0
 47
0.0
 48
0.0
140
0.18
141
0.09
142
0.0
143
25.4
144
1.0
145
0.0
146
1.0
147
0.09
 71
     0
 72
     0
 73
     1
 74
     1
 75
     0
 76
     0
 77
     0
 78
     0
170
     0
171
     2
172
     0
173
     0
174
     0
175
     0
176
     0
177
     0
178
     0
  0
ENDTAB
  0
ENDSEC
  0
SECTION
  2
BLOCKS
  0
BLOCK
  8
0
  2
$MODEL_SPACE
 70
     0
 10
0.0
 20
0.0
 30
0.0
  3
$MODEL_SPACE
  1

  0
ENDBLK
  5
1C7
  8
0
  0
BLOCK
 67
     1
  8
0
  2
$PAPER_SPACE
 70
     0
 10
0.0
 20
0.0
 30
0.0
  3
$PAPER_SPACE
  1

  0
ENDBLK
  5
1C9
 67
     1
  8
0
  0
ENDSEC
  0
SECTION
  2
ENTITIES
  0
SOLID
  5
33
  8
0
 62
     7
 10
0.18294
 20
0.361908
 30
0.0
 11
0.18894
 21
0.363908
 31
0.0
 12
0.18294
 22
0.361908
 32
0.0
 13
0.19094
 23
0.369908
 33
0.0
  0
SOLID
  5
34
  8
0
 62
     7
 10
0.19094
 20
0.369908
 30
0.0
 11
0.18894
 21
0.375908
 31
0.0
 12
0.19094
 22
0.369908
 32
0.0
 13
0.18294
 23
0.377908
 33
0.0
  0
SOLID
  5
35
  8
0
 62
     7
 10
0.18294
 20
0.377908
 30
0.0
 11
0.17694
 21
0.375908
 31
0.0
 12
0.18294
 22
0.377908
 32
0.0
 13
0.17494
 23
0.369908
 33
0.0
  0
SOLID
  5
36
  8
0
 62
     7
 10
0.17494
 20
0.369908
 30
0.0
 11
0.17694
 21
0.363908
 31
0.0
 12
0.17494
 22
0.369908
 32
0.0
 13
0.18294
 23
0.361908
 33
0.0
  0
SOLID
  5
37
  8
0
 62
     7
 10
0.17494
 20
0.369908
 30
0.0
 11
0.18294
 21
0.361908
 31
0.0
 12
0.17494
 22
0.369908
 32
0.0
 13
0.19094
 23
0.369908
 33
0.0
  0
SOLID
  5
38
  8
0
 62
     7
 10
0.17494
 20
0.369908
 30
0.0
 11
0.19094
 21
0.369908
 31
0.0
 12
0.17494
 22
0.369908
 32
0.0
 13
0.18294
 23
0.377908
 33
0.0
  0
POLYLINE
  5
39
  8
0
  6
Solid_1
 62
     7
 66
     1
 10
0.0
 20
0.0
 30
0.0
  0
VERTEX
  5
5F9
  8
0
  6
Solid_1
 62
     7
 10
0.027
 20
0.322
 30
0.0
  0
VERTEX
  5
5FA
  8
0
  6
Solid_1
 62
     7
 10
0.042
 20
0.334
 30
0.0
  0
VERTEX
  5
5FB
  8
0
  6
Solid_1
 62
     7
 10
0.042
 20
0.35
 30
0.0
  0
VERTEX
  5
5FC
  8
0
  6
Solid_1
 62
     7
 10
0.032
 20
0.368
 30
0.0
  0
VERTEX
  5
5FD
  8
0
  6
Solid_1
 62
     7
 10
0.016
 20
0.363
 30
0.0
  0
VERTEX
  5
5FE
  8
0
  6
Solid_1
 62
     7
 10
0.004
 20
0.352
 30
0.0
  0
VERTEX
  5
5FF
  8
0
  6
Solid_1
 62
     7
 10
0.008
 20
0.339
 30
0.0
  0
VERTEX
  5
600
  8
0
  6
Solid_1
 62
     7
 10
0.014
 20
0.324
 30
0.0
  0
VERTEX
  5
601
  8
0
  6
Solid_1
 62
     7
 10
0.027
 20
0.322
 30
0.0
  0
SEQEND
  5
5F8
  8
0
  6
Solid_1
 62
     7
  0
POLYLINE
  5
44
  8
0
  6
Solid_1
 62
     7
 66
     1
 10
0.0
 20
0.0
 30
0.0
  0
VERTEX
  5
603
  8
0
  6
Solid_1
 62
     7
 10
0.041
 20
0.249
 30
0.0
  0
VERTEX
  5
604
  8
0
  6
Solid_1
 62
     7
 10
0.033
 20
0.238
 30
0.0
  0
VERTEX
  5
605
  8
0
  6
Solid_1
 62
     7
 10
0.032
 20
0.224
 30
0.0
  0
VERTEX
  5
606
  8
0
  6
Solid_1
 62
     7
 10
0.043
 20
0.213
 30
0.0
  0
VERTEX
  5
607
  8
0
  6
Solid_1
 62
     7
 10
0.057
 20
0.216
 30
0.0
  0
VERTEX
  5
608
  8
0
  6
Solid_1
 62
     7
 10
0.06
 20
0.231
 30
0.0
  0
VERTEX
  5
609
  8
0
  6
Solid_1
 62
     7
 10
0.058
 20
0.243
 30
0.0
  0
VERTEX
  5
60A
  8
0
  6
Solid_1
 62
     7
 10
0.041
 20
0.249
 30
0.0
  0
SEQEND
  5
602
  8
0
  6
Solid_1
 62
     7
  0
POLYLINE
  5
4E
  8
0
  6
Solid_1
 62
     7
 66
     1
 10
0.0
 20
0.0
 30
0.0
  0
VERTEX
  5
60C
  8
0
  6
Solid_1
 62
     7
 10
0.22124
 20
0.276091
 30
0.0
  0
VERTEX
  5
60D
  8
0
  6
Solid_1
 62
     7
 10
0.21124
 20
0.261091
 30
0.0
  0
VERTEX
  5
60E
  8
0
  6
Solid_1
 62
     7
 10
0.21724
 20
0.248091
 30
0.0
  0
VERTEX
  5
60F
  8
0
  6
Solid_1
 62
     7
 10
0.23424
 20
0.243091
 30
0.0
  0
VERTEX
  5
610
  8
0
  6
Solid_1
 62
     7
 10
0.24724
 20
0.252091
 30
0.0
  0
VERTEX
  5
611
  8
0
  6
Solid_1
 62
     7
 10
0.24724
 20
0.271091
 30
0.0
  0
VERTEX
  5
612
  8
0
  6
Solid_1
 62
     7
 10
0.22124
 20
0.276091
 30
0.0
  0
SEQEND
  5
60B
  8
0
  6
Solid_1
 62
     7
  0
POLYLINE
  5
57
  8
0
  6
Solid_1
 62
     7
 66
     1
 10
0.0
 20
0.0
 30
0.0
  0
VERTEX
  5
614
  8
0
  6
Solid_1
 62
     7
 10
0.056943
 20
0.050909
 30
0.0
  0
VERTEX
  5
615
  8
0
  6
Solid_1
 62
     7
 10
0.0851
 20
0.058182
 30
0.0
  0
VERTEX
  5
616
  8
0
  6
Solid_1
 62
     7
 10
0.10145
 20
0.077273
 30
0.0
  0
VERTEX
  5
617
  8
0
  6
Solid_1
 62
     7
 10
0.087825
 20
0.094545
 30
0.0
  0
VERTEX
  5
618
  8
0
  6
Solid_1
 62
     7
 10
0.061485
 20
0.095455
 30
0.0
  0
VERTEX
  5
619
  8
0
  6
Solid_1
 62
     7
 10
0.038777
 20
0.079091
 30
0.0
  0
VERTEX
  5
61A
  8
0
  6
Solid_1
 62
     7
 10
0.034236
 20
0.057273
 30
0.0
  0
VERTEX
  5
61B
  8
0
  6
Solid_1
 62
     7
 10
0.056943
 20
0.050909
 30
0.0
  0
SEQEND
  5
613
  8
0
  6
Solid_1
 62
     7
  0
POLYLINE
  5
61
  8
0
  6
Solid_1
 62
     7
 66
     1
 10
0.0
 20
0.0
 30
0.0
  0
VERTEX
  5
61D
  8
0
  6
Solid_1
 62
     7
 10
0.213869
 20
0.052273
 30
0.0
  0
VERTEX
  5
61E
  8
0
  6
Solid_1
 62
     7
 10
0.231869
 20
0.056273
 30
0.0
  0
VERTEX
  5
61F
  8
0
  6
Solid_1
 62
     7
 10
0.246869
 20
0.071273
 30
0.0
  0
VERTEX
  5
620
  8
0
  6
Solid_1
 62
     7
 10
0.231869
 20
0.106273
 30
0.0
  0
VERTEX
  5
621
  8
0
  6
Solid_1
 62
     7
 10
0.197729
 20
0.129091
 30
0.0
  0
VERTEX
  5
622
  8
0
  6
Solid_1
 62
     7
 10
0.190869
 20
0.104273
 30
0.0
  0
VERTEX
  5
623
  8
0
  6
Solid_1
 62
     7
 10
0.191869
 20
0.078273
 30
0.0
  0
VERTEX
  5
624
  8
0
  6
Solid_1
 62
     7
 10
0.195869
 20
0.058273
 30
0.0
  0
VERTEX
  5
625
  8
0
  6
Solid_1
 62
     7
 10
0.213869
 20
0.052273
 30
0.0
  0
SEQEND
  5
61C
  8
0
  6
Solid_1
 62
     7
  0
POLYLINE
  5
6C
  8
0
  6
Solid_1
 62
     7
 66
     1
 10
0.0
 20
0.0
 30
0.0
  0
VERTEX
  5
627
  8
0
  6
Solid_1
 62
     7
 10
0.0
 20
0.268
 30
0.0
  0
VERTEX
  5
628
  8
0
  6
Solid_1
 62
     7
 10
0.005
 20
0.258
 30
0.0
  0
VERTEX
  5
629
  8
0
  6
Solid_1
 62
     7
 10
0.0
 20
0.245
 30
0.0
  0
SEQEND
  5
626
  8
0
  6
Solid_1
 62
     7
  0
POLYLINE
  5
71
  8
0
  6
Solid_1
 62
     7
 66
     1
 10
0.0
 20
0.0
 30
0.0
  0
VERTEX
  5
62B
  8
0
  6
Solid_1
 62
     7
 10
0.0
 20
0.184
 30
0.0
  0
VERTEX
  5
62C
  8
0
  6
Solid_1
 62
     7
 10
0.033
 20
0.172
 30
0.0
  0
VERTEX
  5
62D
  8
0
  6
Solid_1
 62
     7
 10
0.047
 20
0.139
 30
0.0
  0
VERTEX
  5
62E
  8
0
  6
Solid_1
 62
     7
 10
0.033
 20
0.107
 30
0.0
  0
VERTEX
  5
62F
  8
0
  6
Solid_1
 62
     7
 10
0.0
 20
0.095
 30
0.0
  0
SEQEND
  5
62A
  8
0
  6
Solid_1
 62
     7
  0
POLYLINE
  5
78
  8
0
  6
Solid_1
 62
     7
 66
     1
 10
0.0
 20
0.0
 30
0.0
  0
VERTEX
  5
631
  8
0
  6
Solid_1
 62
     7
 10
0.074
 20
0.0
 30
0.0
  0
VERTEX
  5
632
  8
0
  6
Solid_1
 62
     7
 10
0.089
 20
0.026
 30
0.0
  0
VERTEX
  5
633
  8
0
  6
Solid_1
 62
     7
 10
0.118
 20
0.037
 30
0.0
  0
VERTEX
  5
634
  8
0
  6
Solid_1
 62
     7
 10
0.147
 20
0.026
 30
0.0
  0
VERTEX
  5
635
  8
0
  6
Solid_1
 62
     7
 10
0.163
 20
0.0
 30
0.0
  0
SEQEND
  5
630
  8
0
  6
Solid_1
 62
     7
  0
SOLID
  5
7F
  8
0
 62
     7
 10
0.362839
 20
0.06195
 30
0.0
 11
0.368839
 21
0.06395
 31
0.0
 12
0.362839
 22
0.06195
 32
0.0
 13
0.370839
 23
0.06995
 33
0.0
  0
SOLID
  5
80
  8
0
 62
     7
 10
0.370839
 20
0.06995
 30
0.0
 11
0.368839
 21
0.07595
 31
0.0
 12
0.370839
 22
0.06995
 32
0.0
 13
0.362839
 23
0.07795
 33
0.0
  0
SOLID
  5
81
  8
0
 62
     7
 10
0.362839
 20
0.07795
 30
0.0
 11
0.356839
 21
0.07595
 31
0.0
 12
0.362839
 22
0.07795
 32
0.0
 13
0.354839
 23
0.06995
 33
0.0
  0
SOLID
  5
82
  8
0
 62
     7
 10
0.354839
 20
0.06995
 30
0.0
 11
0.356839
 21
0.06395
 31
0.0
 12
0.354839
 22
0.06995
 32
0.0
 13
0.362839
 23
0.06195
 33
0.0
  0
SOLID
  5
83
  8
0
 62
     7
 10
0.354839
 20
0.06995
 30
0.0
 11
0.362839
 21
0.06195
 31
0.0
 12
0.354839
 22
0.06995
 32
0.0
 13
0.370839
 23
0.06995
 33
0.0
  0
SOLID
  5
84
  8
0
 62
     7
 10
0.354839
 20
0.06995
 30
0.0
 11
0.370839
 21
0.06995
 31
0.0
 12
0.354839
 22
0.06995
 32
0.0
 13
0.362839
 23
0.07795
 33
0.0
  0
SOLID
  5
85
  8
0
 62
     7
 10
0.322201
 20
0.101613
 30
0.0
 11
0.328201
 21
0.103613
 31
0.0
 12
0.322201
 22
0.101613
 32
0.0
 13
0.330201
 23
0.109614
 33
0.0
  0
SOLID
  5
86
  8
0
 62
     7
 10
0.330201
 20
0.109614
 30
0.0
 11
0.328201
 21
0.115613
 31
0.0
 12
0.330201
 22
0.109614
 32
0.0
 13
0.322201
 23
0.117613
 33
0.0
  0
SOLID
  5
87
  8
0
 62
     7
 10
0.322201
 20
0.117613
 30
0.0
 11
0.316201
 21
0.115613
 31
0.0
 12
0.322201
 22
0.117613
 32
0.0
 13
0.314201
 23
0.109614
 33
0.0
  0
SOLID
  5
88
  8
0
 62
     7
 10
0.314201
 20
0.109614
 30
0.0
 11
0.316201
 21
0.103613
 31
0.0
 12
0.314201
 22
0.109614
 32
0.0
 13
0.322201
 23
0.101613
 33
0.0
  0
SOLID
  5
89
  8
0
 62
     7
 10
0.314201
 20
0.109614
 30
0.0
 11
0.322201
 21
0.101613
 31
0.0
 12
0.314201
 22
0.109614
 32
0.0
 13
0.330201
 23
0.109614
 33
0.0
  0
SOLID
  5
8A
  8
0
 62
     7
 10
0.314201
 20
0.109614
 30
0.0
 11
0.330201
 21
0.109614
 31
0.0
 12
0.314201
 22
0.109614
 32
0.0
 13
0.322201
 23
0.117613
 33
0.0
  0
SOLID
  5
8B
  8
0
 62
     7
 10
0.163116
 20
0.060958
 30
0.0
 11
0.169116
 21
0.062958
 31
0.0
 12
0.163116
 22
0.060958
 32
0.0
 13
0.171116
 23
0.068958
 33
0.0
  0
SOLID
  5
8C
  8
0
 62
     7
 10
0.171116
 20
0.068958
 30
0.0
 11
0.169116
 21
0.074958
 31
0.0
 12
0.171116
 22
0.068958
 32
0.0
 13
0.163116
 23
0.076958
 33
0.0
  0
SOLID
  5
8D
  8
0
 62
     7
 10
0.163116
 20
0.076958
 30
0.0
 11
0.157116
 21
0.074958
 31
0.0
 12
0.163116
 22
0.076958
 32
0.0
 13
0.155116
 23
0.068958
 33
0.0
  0
SOLID
  5
8E
  8
0
 62
     7
 10
0.155116
 20
0.068958
 30
0.0
 11
0.157116
 21
0.062958
 31
0.0
 12
0.155116
 22
0.068958
 32
0.0
 13
0.163116
 23
0.060958
 33
0.0
  0
SOLID
  5
8F
  8
0
 62
     7
 10
0.155116
 20
0.068958
 30
0.0
 11
0.163116
 21
0.060958
 31
0.0
 12
0.155116
 22
0.068958
 32
0.0
 13
0.171116
 23
0.068958
 33
0.0
  0
SOLID
  5
90
  8
0
 62
     7
 10
0.155116
 20
0.068958
 30
0.0
 11
0.171116
 21
0.068958
 31
0.0
 12
0.155116
 22
0.068958
 32
0.0
 13
0.163116
 23
0.076958
 33
0.0
  0
SOLID
  5
91
  8
0
 62
     7
 10
0.122973
 20
0.102109
 30
0.0
 11
0.128973
 21
0.104109
 31
0.0
 12
0.122973
 22
0.102109
 32
0.0
 13
0.130973
 23
0.110109
 33
0.0
  0
SOLID
  5
92
  8
0
 62
     7
 10
0.130973
 20
0.110109
 30
0.0
 11
0.128973
 21
0.116109
 31
0.0
 12
0.130973
 22
0.110109
 32
0.0
 13
0.122973
 23
0.118109
 33
0.0
  0
SOLID
  5
93
  8
0
 62
     7
 10
0.122973
 20
0.118109
 30
0.0
 11
0.116973
 21
0.116109
 31
0.0
 12
0.122973
 22
0.118109
 32
0.0
 13
0.114974
 23
0.110109
 33
0.0
  0
SOLID
  5
94
  8
0
 62
     7
 10
0.114974
 20
0.110109
 30
0.0
 11
0.116973
 21
0.104109
 31
0.0
 12
0.114974
 22
0.110109
 32
0.0
 13
0.122973
 23
0.102109
 33
0.0
  0
SOLID
  5
95
  8
0
 62
     7
 10
0.114974
 20
0.110109
 30
0.0
 11
0.122973
 21
0.102109
 31
0.0
 12
0.114974
 22
0.110109
 32
0.0
 13
0.130973
 23
0.110109
 33
0.0
  0
SOLID
  5
96
  8
0
 62
     7
 10
0.114974
 20
0.110109
 30
0.0
 11
0.130973
 21
0.110109
 31
0.0
 12
0.114974
 22
0.110109
 32
0.0
 13
0.122973
 23
0.118109
 33
0.0
  0
SOLID
  5
97
  8
0
 62
     7
 10
0.007997
 20
0.08079
 30
0.0
 11
0.013997
 21
0.08279
 31
0.0
 12
0.007997
 22
0.08079
 32
0.0
 13
0.015997
 23
0.08879
 33
0.0
  0
SOLID
  5
98
  8
0
 62
     7
 10
0.015997
 20
0.08879
 30
0.0
 11
0.013997
 21
0.09479
 31
0.0
 12
0.015997
 22
0.08879
 32
0.0
 13
0.007997
 23
0.09679
 33
0.0
  0
SOLID
  5
99
  8
0
 62
     7
 10
0.007997
 20
0.09679
 30
0.0
 11
0.001997
 21
0.09479
 31
0.0
 12
0.007997
 22
0.09679
 32
0.0
 13
-0.000003
 23
0.08879
 33
0.0
  0
SOLID
  5
9A
  8
0
 62
     7
 10
-0.000003
 20
0.08879
 30
0.0
 11
0.001997
 21
0.08279
 31
0.0
 12
-0.000003
 22
0.08879
 32
0.0
 13
0.007997
 23
0.08079
 33
0.0
  0
SOLID
  5
9B
  8
0
 62
     7
 10
-0.000003
 20
0.08879
 30
0.0
 11
0.007997
 21
0.08079
 31
0.0
 12
-0.000003
 22
0.08879
 32
0.0
 13
0.015997
 23
0.08879
 33
0.0
  0
SOLID
  5
9C
  8
0
 62
     7
 10
-0.000003
 20
0.08879
 30
0.0
 11
0.015997
 21
0.08879
 31
0.0
 12
-0.000003
 22
0.08879
 32
0.0
 13
0.007997
 23
0.09679
 33
0.0
  0
SOLID
  5
9D
  8
0
 62
     7
 10
0.02336
 20
0.042118
 30
0.0
 11
0.02936
 21
0.044118
 31
0.0
 12
0.02336
 22
0.042118
 32
0.0
 13
0.03136
 23
0.050118
 33
0.0
  0
SOLID
  5
9E
  8
0
 62
     7
 10
0.03136
 20
0.050118
 30
0.0
 11
0.02936
 21
0.056118
 31
0.0
 12
0.03136
 22
0.050118
 32
0.0
 13
0.02336
 23
0.058118
 33
0.0
  0
SOLID
  5
9F
  8
0
 62
     7
 10
0.02336
 20
0.058118
 30
0.0
 11
0.01736
 21
0.056118
 31
0.0
 12
0.02336
 22
0.058118
 32
0.0
 13
0.01536
 23
0.050118
 33
0.0
  0
SOLID
  5
A0
  8
0
 62
     7
 10
0.01536
 20
0.050118
 30
0.0
 11
0.01736
 21
0.044118
 31
0.0
 12
0.01536
 22
0.050118
 32
0.0
 13
0.02336
 23
0.042118
 33
0.0
  0
SOLID
  5
A1
  8
0
 62
     7
 10
0.01536
 20
0.050118
 30
0.0
 11
0.02336
 21
0.042118
 31
0.0
 12
0.01536
 22
0.050118
 32
0.0
 13
0.03136
 23
0.050118
 33
0.0
  0
SOLID
  5
A2
  8
0
 62
     7
 10
0.01536
 20
0.050118
 30
0.0
 11
0.03136
 21
0.050118
 31
0.0
 12
0.01536
 22
0.050118
 32
0.0
 13
0.02336
 23
0.058118
 33
0.0
  0
SOLID
  5
A3
  8
0
 62
     7
 10
0.008492
 20
0.201765
 30
0.0
 11
0.014492
 21
0.203765
 31
0.0
 12
0.008492
 22
0.201765
 32
0.0
 13
0.016492
 23
0.209765
 33
0.0
  0
SOLID
  5
A4
  8
0
 62
     7
 10
0.016492
 20
0.209765
 30
0.0
 11
0.014492
 21
0.215765
 31
0.0
 12
0.016492
 22
0.209765
 32
0.0
 13
0.008492
 23
0.217765
 33
0.0
  0
SOLID
  5
A5
  8
0
 62
     7
 10
0.008492
 20
0.217765
 30
0.0
 11
0.002492
 21
0.215765
 31
0.0
 12
0.008492
 22
0.217765
 32
0.0
 13
0.000492
 23
0.209765
 33
0.0
  0
SOLID
  5
A6
  8
0
 62
     7
 10
0.000492
 20
0.209765
 30
0.0
 11
0.002492
 21
0.203765
 31
0.0
 12
0.000492
 22
0.209765
 32
0.0
 13
0.008492
 23
0.201765
 33
0.0
  0
SOLID
  5
A7
  8
0
 62
     7
 10
0.000492
 20
0.209765
 30
0.0
 11
0.008492
 21
0.201765
 31
0.0
 12
0.000492
 22
0.209765
 32
0.0
 13
0.016492
 23
0.209765
 33
0.0
  0
SOLID
  5
A8
  8
0
 62
     7
 10
0.000492
 20
0.209765
 30
0.0
 11
0.016492
 21
0.209765
 31
0.0
 12
0.000492
 22
0.209765
 32
0.0
 13
0.008492
 23
0.217765
 33
0.0
  0
SOLID
  5
A9
  8
0
 62
     7
 10
0.047148
 20
0.319269
 30
0.0
 11
0.053148
 21
0.321269
 31
0.0
 12
0.047148
 22
0.319269
 32
0.0
 13
0.055148
 23
0.327269
 33
0.0
  0
SOLID
  5
AA
  8
0
 62
     7
 10
0.055148
 20
0.327269
 30
0.0
 11
0.053148
 21
0.333269
 31
0.0
 12
0.055148
 22
0.327269
 32
0.0
 13
0.047148
 23
0.335269
 33
0.0
  0
SOLID
  5
AB
  8
0
 62
     7
 10
0.047148
 20
0.335269
 30
0.0
 11
0.041148
 21
0.333269
 31
0.0
 12
0.047148
 22
0.335269
 32
0.0
 13
0.039148
 23
0.327269
 33
0.0
  0
SOLID
  5
AC
  8
0
 62
     7
 10
0.039148
 20
0.327269
 30
0.0
 11
0.041148
 21
0.321269
 31
0.0
 12
0.039148
 22
0.327269
 32
0.0
 13
0.047148
 23
0.319269
 33
0.0
  0
SOLID
  5
AD
  8
0
 62
     7
 10
0.039148
 20
0.327269
 30
0.0
 11
0.047148
 21
0.319269
 31
0.0
 12
0.039148
 22
0.327269
 32
0.0
 13
0.055148
 23
0.327269
 33
0.0
  0
SOLID
  5
AE
  8
0
 62
     7
 10
0.039148
 20
0.327269
 30
0.0
 11
0.055148
 21
0.327269
 31
0.0
 12
0.039148
 22
0.327269
 32
0.0
 13
0.047148
 23
0.335269
 33
0.0
  0
SOLID
  5
AF
  8
0
 62
     7
 10
0.046157
 20
0.247378
 30
0.0
 11
0.052157
 21
0.249378
 31
0.0
 12
0.046157
 22
0.247378
 32
0.0
 13
0.054157
 23
0.255378
 33
0.0
  0
SOLID
  5
B0
  8
0
 62
     7
 10
0.054157
 20
0.255378
 30
0.0
 11
0.052157
 21
0.261378
 31
0.0
 12
0.054157
 22
0.255378
 32
0.0
 13
0.046157
 23
0.263378
 33
0.0
  0
SOLID
  5
B1
  8
0
 62
     7
 10
0.046157
 20
0.263378
 30
0.0
 11
0.040157
 21
0.261378
 31
0.0
 12
0.046157
 22
0.263378
 32
0.0
 13
0.038157
 23
0.255378
 33
0.0
  0
SOLID
  5
B2
  8
0
 62
     7
 10
0.038157
 20
0.255378
 30
0.0
 11
0.040157
 21
0.249378
 31
0.0
 12
0.038157
 22
0.255378
 32
0.0
 13
0.046157
 23
0.247378
 33
0.0
  0
SOLID
  5
B3
  8
0
 62
     7
 10
0.038157
 20
0.255378
 30
0.0
 11
0.046157
 21
0.247378
 31
0.0
 12
0.038157
 22
0.255378
 32
0.0
 13
0.054157
 23
0.255378
 33
0.0
  0
SOLID
  5
B4
  8
0
 62
     7
 10
0.038157
 20
0.255378
 30
0.0
 11
0.054157
 21
0.255378
 31
0.0
 12
0.038157
 22
0.255378
 32
0.0
 13
0.046157
 23
0.263378
 33
0.0
  0
SOLID
  5
B5
  8
0
 62
     7
 10
0.208215
 20
0.182429
 30
0.0
 11
0.214215
 21
0.184429
 31
0.0
 12
0.208215
 22
0.182429
 32
0.0
 13
0.216215
 23
0.190429
 33
0.0
  0
SOLID
  5
B6
  8
0
 62
     7
 10
0.216215
 20
0.190429
 30
0.0
 11
0.214215
 21
0.196429
 31
0.0
 12
0.216215
 22
0.190429
 32
0.0
 13
0.208215
 23
0.198429
 33
0.0
  0
SOLID
  5
B7
  8
0
 62
     7
 10
0.208215
 20
0.198429
 30
0.0
 11
0.202215
 21
0.196429
 31
0.0
 12
0.208215
 22
0.198429
 32
0.0
 13
0.200215
 23
0.190429
 33
0.0
  0
SOLID
  5
B8
  8
0
 62
     7
 10
0.200215
 20
0.190429
 30
0.0
 11
0.202215
 21
0.184429
 31
0.0
 12
0.200215
 22
0.190429
 32
0.0
 13
0.208215
 23
0.182429
 33
0.0
  0
SOLID
  5
B9
  8
0
 62
     7
 10
0.200215
 20
0.190429
 30
0.0
 11
0.208215
 21
0.182429
 31
0.0
 12
0.200215
 22
0.190429
 32
0.0
 13
0.216215
 23
0.190429
 33
0.0
  0
SOLID
  5
BA
  8
0
 62
     7
 10
0.200215
 20
0.190429
 30
0.0
 11
0.216215
 21
0.190429
 31
0.0
 12
0.200215
 22
0.190429
 32
0.0
 13
0.208215
 23
0.198429
 33
0.0
  0
SOLID
  5
BB
  8
0
 62
     7
 10
0.263226
 20
0.041622
 30
0.0
 11
0.269226
 21
0.043622
 31
0.0
 12
0.263226
 22
0.041622
 32
0.0
 13
0.271226
 23
0.049622
 33
0.0
  0
SOLID
  5
BC
  8
0
 62
     7
 10
0.271226
 20
0.049622
 30
0.0
 11
0.269226
 21
0.055622
 31
0.0
 12
0.271226
 22
0.049622
 32
0.0
 13
0.263226
 23
0.057622
 33
0.0
  0
SOLID
  5
BD
  8
0
 62
     7
 10
0.263226
 20
0.057622
 30
0.0
 11
0.257226
 21
0.055622
 31
0.0
 12
0.263226
 22
0.057622
 32
0.0
 13
0.255226
 23
0.049622
 33
0.0
  0
SOLID
  5
BE
  8
0
 62
     7
 10
0.255226
 20
0.049622
 30
0.0
 11
0.257226
 21
0.043622
 31
0.0
 12
0.255226
 22
0.049622
 32
0.0
 13
0.263226
 23
0.041622
 33
0.0
  0
SOLID
  5
BF
  8
0
 62
     7
 10
0.255226
 20
0.049622
 30
0.0
 11
0.263226
 21
0.041622
 31
0.0
 12
0.255226
 22
0.049622
 32
0.0
 13
0.271226
 23
0.049622
 33
0.0
  0
SOLID
  5
C0
  8
0
 62
     7
 10
0.255226
 20
0.049622
 30
0.0
 11
0.271226
 21
0.049622
 31
0.0
 12
0.255226
 22
0.049622
 32
0.0
 13
0.263226
 23
0.057622
 33
0.0
  0
SOLID
  5
C1
  8
0
 62
     7
 10
0.203755
 20
0.001462
 30
0.0
 11
0.209755
 21
0.003462
 31
0.0
 12
0.203755
 22
0.001462
 32
0.0
 13
0.211755
 23
0.009462
 33
0.0
  0
SOLID
  5
C2
  8
0
 62
     7
 10
0.211755
 20
0.009462
 30
0.0
 11
0.209755
 21
0.015462
 31
0.0
 12
0.211755
 22
0.009462
 32
0.0
 13
0.203755
 23
0.017462
 33
0.0
  0
SOLID
  5
C3
  8
0
 62
     7
 10
0.203755
 20
0.017462
 30
0.0
 11
0.197755
 21
0.015462
 31
0.0
 12
0.203755
 22
0.017462
 32
0.0
 13
0.195755
 23
0.009462
 33
0.0
  0
SOLID
  5
C4
  8
0
 62
     7
 10
0.195755
 20
0.009462
 30
0.0
 11
0.197755
 21
0.003462
 31
0.0
 12
0.195755
 22
0.009462
 32
0.0
 13
0.203755
 23
0.001462
 33
0.0
  0
SOLID
  5
C5
  8
0
 62
     7
 10
0.195755
 20
0.009462
 30
0.0
 11
0.203755
 21
0.001462
 31
0.0
 12
0.195755
 22
0.009462
 32
0.0
 13
0.211755
 23
0.009462
 33
0.0
  0
SOLID
  5
C6
  8
0
 62
     7
 10
0.195755
 20
0.009462
 30
0.0
 11
0.211755
 21
0.009462
 31
0.0
 12
0.195755
 22
0.009462
 32
0.0
 13
0.203755
 23
0.017462
 33
0.0
  0
SOLID
  5
C7
  8
0
 62
     7
 10
0.14478
 20
0.02774
 30
0.0
 11
0.15078
 21
0.029739
 31
0.0
 12
0.14478
 22
0.02774
 32
0.0
 13
0.15278
 23
0.03574
 33
0.0
  0
SOLID
  5
C8
  8
0
 62
     7
 10
0.15278
 20
0.03574
 30
0.0
 11
0.15078
 21
0.041739
 31
0.0
 12
0.15278
 22
0.03574
 32
0.0
 13
0.14478
 23
0.04374
 33
0.0
  0
SOLID
  5
C9
  8
0
 62
     7
 10
0.14478
 20
0.04374
 30
0.0
 11
0.13878
 21
0.041739
 31
0.0
 12
0.14478
 22
0.04374
 32
0.0
 13
0.136779
 23
0.03574
 33
0.0
  0
SOLID
  5
CA
  8
0
 62
     7
 10
0.136779
 20
0.03574
 30
0.0
 11
0.13878
 21
0.029739
 31
0.0
 12
0.136779
 22
0.03574
 32
0.0
 13
0.14478
 23
0.02774
 33
0.0
  0
SOLID
  5
CB
  8
0
 62
     7
 10
0.136779
 20
0.03574
 30
0.0
 11
0.14478
 21
0.02774
 31
0.0
 12
0.136779
 22
0.03574
 32
0.0
 13
0.15278
 23
0.03574
 33
0.0
  0
SOLID
  5
CC
  8
0
 62
     7
 10
0.136779
 20
0.03574
 30
0.0
 11
0.15278
 21
0.03574
 31
0.0
 12
0.136779
 22
0.03574
 32
0.0
 13
0.14478
 23
0.04374
 33
0.0
  0
SOLID
  5
CD
  8
0
 62
     7
 10
0.051113
 20
0.118966
 30
0.0
 11
0.057113
 21
0.120966
 31
0.0
 12
0.051113
 22
0.118966
 32
0.0
 13
0.059113
 23
0.126966
 33
0.0
  0
SOLID
  5
CE
  8
0
 62
     7
 10
0.059113
 20
0.126966
 30
0.0
 11
0.057113
 21
0.132966
 31
0.0
 12
0.059113
 22
0.126966
 32
0.0
 13
0.051113
 23
0.134966
 33
0.0
  0
SOLID
  5
CF
  8
0
 62
     7
 10
0.051113
 20
0.134966
 30
0.0
 11
0.045113
 21
0.132966
 31
0.0
 12
0.051113
 22
0.134966
 32
0.0
 13
0.043113
 23
0.126966
 33
0.0
  0
SOLID
  5
D0
  8
0
 62
     7
 10
0.043113
 20
0.126966
 30
0.0
 11
0.045113
 21
0.120966
 31
0.0
 12
0.043113
 22
0.126966
 32
0.0
 13
0.051113
 23
0.118966
 33
0.0
  0
SOLID
  5
D1
  8
0
 62
     7
 10
0.043113
 20
0.126966
 30
0.0
 11
0.051113
 21
0.118966
 31
0.0
 12
0.043113
 22
0.126966
 32
0.0
 13
0.059113
 23
0.126966
 33
0.0
  0
SOLID
  5
D2
  8
0
 62
     7
 10
0.043113
 20
0.126966
 30
0.0
 11
0.059113
 21
0.126966
 31
0.0
 12
0.043113
 22
0.126966
 32
0.0
 13
0.051113
 23
0.134966
 33
0.0
  0
SOLID
  5
D3
  8
0
 62
     7
 10
0.392079
 20
0.022286
 30
0.0
 11
0.398079
 21
0.024286
 31
0.0
 12
0.392079
 22
0.022286
 32
0.0
 13
0.400079
 23
0.030286
 33
0.0
  0
SOLID
  5
D4
  8
0
 62
     7
 10
0.400079
 20
0.030286
 30
0.0
 11
0.398079
 21
0.036286
 31
0.0
 12
0.400079
 22
0.030286
 32
0.0
 13
0.392079
 23
0.038286
 33
0.0
  0
SOLID
  5
D5
  8
0
 62
     7
 10
0.392079
 20
0.038286
 30
0.0
 11
0.386079
 21
0.036286
 31
0.0
 12
0.392079
 22
0.038286
 32
0.0
 13
0.384079
 23
0.030286
 33
0.0
  0
SOLID
  5
D6
  8
0
 62
     7
 10
0.384079
 20
0.030286
 30
0.0
 11
0.386079
 21
0.024286
 31
0.0
 12
0.384079
 22
0.030286
 32
0.0
 13
0.392079
 23
0.022286
 33
0.0
  0
SOLID
  5
D7
  8
0
 62
     7
 10
0.384079
 20
0.030286
 30
0.0
 11
0.392079
 21
0.022286
 31
0.0
 12
0.384079
 22
0.030286
 32
0.0
 13
0.400079
 23
0.030286
 33
0.0
  0
SOLID
  5
D8
  8
0
 62
     7
 10
0.384079
 20
0.030286
 30
0.0
 11
0.400079
 21
0.030286
 31
0.0
 12
0.384079
 22
0.030286
 32
0.0
 13
0.392079
 23
0.038286
 33
0.0
  0
SOLID
  5
D9
  8
0
 62
     7
 10
0.383654
 20
0.28605
 30
0.0
 11
0.389654
 21
0.28805
 31
0.0
 12
0.383654
 22
0.28605
 32
0.0
 13
0.391654
 23
0.29405
 33
0.0
  0
SOLID
  5
DA
  8
0
 62
     7
 10
0.391654
 20
0.29405
 30
0.0
 11
0.389654
 21
0.30005
 31
0.0
 12
0.391654
 22
0.29405
 32
0.0
 13
0.383654
 23
0.30205
 33
0.0
  0
SOLID
  5
DB
  8
0
 62
     7
 10
0.383654
 20
0.30205
 30
0.0
 11
0.377654
 21
0.30005
 31
0.0
 12
0.383654
 22
0.30205
 32
0.0
 13
0.375654
 23
0.29405
 33
0.0
  0
SOLID
  5
DC
  8
0
 62
     7
 10
0.375654
 20
0.29405
 30
0.0
 11
0.377654
 21
0.28805
 31
0.0
 12
0.375654
 22
0.29405
 32
0.0
 13
0.383654
 23
0.28605
 33
0.0
  0
SOLID
  5
DD
  8
0
 62
     7
 10
0.375654
 20
0.29405
 30
0.0
 11
0.383654
 21
0.28605
 31
0.0
 12
0.375654
 22
0.29405
 32
0.0
 13
0.391654
 23
0.29405
 33
0.0
  0
SOLID
  5
DE
  8
0
 62
     7
 10
0.375654
 20
0.29405
 30
0.0
 11
0.391654
 21
0.29405
 31
0.0
 12
0.375654
 22
0.29405
 32
0.0
 13
0.383654
 23
0.30205
 33
0.0
  0
POLYLINE
  5
DF
  8
0
  6
Solid_1
 62
     7
 66
     1
 10
0.0
 20
0.0
 30
0.0
  0
VERTEX
  5
637
  8
0
  6
Solid_1
 62
     7
 10
0.221
 20
0.0
 30
0.0
  0
VERTEX
  5
638
  8
0
  6
Solid_1
 62
     7
 10
0.249
 20
0.013
 30
0.0
  0
VERTEX
  5
639
  8
0
  6
Solid_1
 62
     7
 10
0.304
 20
0.008
 30
0.0
  0
VERTEX
  5
63A
  8
0
  6
Solid_1
 62
     7
 10
0.332
 20
0.0
 30
0.0
  0
SEQEND
  5
636
  8
0
  6
Solid_1
 62
     7
  0
POLYLINE
  5
E5
  8
0
  6
Solid_1
 62
     7
 66
     1
 10
0.0
 20
0.0
 30
0.0
  0
VERTEX
  5
63C
  8
0
  6
Solid_1
 62
     7
 10
0.4
 20
0.095
 30
0.0
  0
VERTEX
  5
63D
  8
0
  6
Solid_1
 62
     7
 10
0.363
 20
0.091
 30
0.0
  0
VERTEX
  5
63E
  8
0
  6
Solid_1
 62
     7
 10
0.343
 20
0.098
 30
0.0
  0
VERTEX
  5
63F
  8
0
  6
Solid_1
 62
     7
 10
0.327
 20
0.116
 30
0.0
  0
VERTEX
  5
640
  8
0
  6
Solid_1
 62
     7
 10
0.282
 20
0.145
 30
0.0
  0
VERTEX
  5
641
  8
0
  6
Solid_1
 62
     7
 10
0.258
 20
0.173
 30
0.0
  0
VERTEX
  5
642
  8
0
  6
Solid_1
 62
     7
 10
0.264
 20
0.186
 30
0.0
  0
VERTEX
  5
643
  8
0
  6
Solid_1
 62
     7
 10
0.3
 20
0.212
 30
0.0
  0
VERTEX
  5
644
  8
0
  6
Solid_1
 62
     7
 10
0.328
 20
0.217
 30
0.0
  0
VERTEX
  5
645
  8
0
  6
Solid_1
 62
     7
 10
0.346
 20
0.208
 30
0.0
  0
VERTEX
  5
646
  8
0
  6
Solid_1
 62
     7
 10
0.37
 20
0.199
 30
0.0
  0
VERTEX
  5
647
  8
0
  6
Solid_1
 62
     7
 10
0.389
 20
0.194
 30
0.0
  0
VERTEX
  5
648
  8
0
  6
Solid_1
 62
     7
 10
0.4
 20
0.184
 30
0.0
  0
SEQEND
  5
63B
  8
0
  6
Solid_1
 62
     7
  0
POLYLINE
  5
F4
  8
0
  6
Solid_1
 62
     7
 66
     1
 10
0.0
 20
0.0
 30
0.0
  0
VERTEX
  5
64A
  8
0
  6
Solid_1
 62
     7
 10
0.332
 20
0.4
 30
0.0
  0
VERTEX
  5
64B
  8
0
  6
Solid_1
 62
     7
 10
0.337
 20
0.387
 30
0.0
  0
VERTEX
  5
64C
  8
0
  6
Solid_1
 62
     7
 10
0.338
 20
0.374
 30
0.0
  0
VERTEX
  5
64D
  8
0
  6
Solid_1
 62
     7
 10
0.339
 20
0.358
 30
0.0
  0
VERTEX
  5
64E
  8
0
  6
Solid_1
 62
     7
 10
0.347
 20
0.344
 30
0.0
  0
VERTEX
  5
64F
  8
0
  6
Solid_1
 62
     7
 10
0.341
 20
0.32
 30
0.0
  0
VERTEX
  5
650
  8
0
  6
Solid_1
 62
     7
 10
0.319
 20
0.307
 30
0.0
  0
VERTEX
  5
651
  8
0
  6
Solid_1
 62
     7
 10
0.276
 20
0.305
 30
0.0
  0
VERTEX
  5
652
  8
0
  6
Solid_1
 62
     7
 10
0.255
 20
0.311
 30
0.0
  0
VERTEX
  5
653
  8
0
  6
Solid_1
 62
     7
 10
0.24
 20
0.323
 30
0.0
  0
VERTEX
  5
654
  8
0
  6
Solid_1
 62
     7
 10
0.226
 20
0.346
 30
0.0
  0
VERTEX
  5
655
  8
0
  6
Solid_1
 62
     7
 10
0.218
 20
0.37
 30
0.0
  0
VERTEX
  5
656
  8
0
  6
Solid_1
 62
     7
 10
0.221
 20
0.4
 30
0.0
  0
SEQEND
  5
649
  8
0
  6
Solid_1
 62
     7
  0
POLYLINE
  5
103
  8
0
  6
Solid_1
 62
     7
 66
     1
 10
0.0
 20
0.0
 30
0.0
  0
VERTEX
  5
658
  8
0
  6
Solid_1
 62
     7
 10
0.163
 20
0.4
 30
0.0
  0
VERTEX
  5
659
  8
0
  6
Solid_1
 62
     7
 10
0.164
 20
0.362
 30
0.0
  0
VERTEX
  5
65A
  8
0
  6
Solid_1
 62
     7
 10
0.157
 20
0.353
 30
0.0
  0
VERTEX
  5
65B
  8
0
  6
Solid_1
 62
     7
 10
0.139
 20
0.343
 30
0.0
  0
VERTEX
  5
65C
  8
0
  6
Solid_1
 62
     7
 10
0.122
 20
0.344
 30
0.0
  0
VERTEX
  5
65D
  8
0
  6
Solid_1
 62
     7
 10
0.109
 20
0.353
 30
0.0
  0
VERTEX
  5
65E
  8
0
  6
Solid_1
 62
     7
 10
0.095
 20
0.362
 30
0.0
  0
VERTEX
  5
65F
  8
0
  6
Solid_1
 62
     7
 10
0.082
 20
0.371
 30
0.0
  0
VERTEX
  5
660
  8
0
  6
Solid_1
 62
     7
 10
0.074
 20
0.388
 30
0.0
  0
VERTEX
  5
661
  8
0
  6
Solid_1
 62
     7
 10
0.074
 20
0.4
 30
0.0
  0
SEQEND
  5
657
  8
0
  6
Solid_1
 62
     7
  0
POLYLINE
  5
10F
  8
0
  6
Solid_1
 62
     7
 66
     1
 10
0.0
 20
0.0
 30
0.0
  0
VERTEX
  5
663
  8
0
  6
Solid_1
 62
     7
 10
0.4
 20
0.268
 30
0.0
  0
VERTEX
  5
664
  8
0
  6
Solid_1
 62
     7
 10
0.381
 20
0.274
 30
0.0
  0
VERTEX
  5
665
  8
0
  6
Solid_1
 62
     7
 10
0.374
 20
0.263
 30
0.0
  0
VERTEX
  5
666
  8
0
  6
Solid_1
 62
     7
 10
0.382
 20
0.249
 30
0.0
  0
VERTEX
  5
667
  8
0
  6
Solid_1
 62
     7
 10
0.392
 20
0.244
 30
0.0
  0
VERTEX
  5
668
  8
0
  6
Solid_1
 62
     7
 10
0.4
 20
0.245
 30
0.0
  0
SEQEND
  5
662
  8
0
  6
Solid_1
 62
     7
  0
POLYLINE
  5
117
  8
0
  6
Solid_1
 62
     7
 66
     1
 10
0.0
 20
0.0
 30
0.0
  0
VERTEX
  5
66A
  8
0
  6
Solid_1
 62
     7
 10
0.136651
 20
0.170364
 30
0.0
  0
VERTEX
  5
66B
  8
0
  6
Solid_1
 62
     7
 10
0.185651
 20
0.173364
 30
0.0
  0
VERTEX
  5
66C
  8
0
  6
Solid_1
 62
     7
 10
0.198651
 20
0.184364
 30
0.0
  0
VERTEX
  5
66D
  8
0
  6
Solid_1
 62
     7
 10
0.202651
 20
0.211364
 30
0.0
  0
VERTEX
  5
66E
  8
0
  6
Solid_1
 62
     7
 10
0.189651
 20
0.226364
 30
0.0
  0
VERTEX
  5
66F
  8
0
  6
Solid_1
 62
     7
 10
0.177651
 20
0.243364
 30
0.0
  0
VERTEX
  5
670
  8
0
  6
Solid_1
 62
     7
 10
0.167651
 20
0.268364
 30
0.0
  0
VERTEX
  5
671
  8
0
  6
Solid_1
 62
     7
 10
0.159651
 20
0.286364
 30
0.0
  0
VERTEX
  5
672
  8
0
  6
Solid_1
 62
     7
 10
0.141651
 20
0.293364
 30
0.0
  0
VERTEX
  5
673
  8
0
  6
Solid_1
 62
     7
 10
0.126651
 20
0.300364
 30
0.0
  0
VERTEX
  5
674
  8
0
  6
Solid_1
 62
     7
 10
0.112651
 20
0.287364
 30
0.0
  0
VERTEX
  5
675
  8
0
  6
Solid_1
 62
     7
 10
0.103651
 20
0.250364
 30
0.0
  0
VERTEX
  5
676
  8
0
  6
Solid_1
 62
     7
 10
0.103651
 20
0.232364
 30
0.0
  0
VERTEX
  5
677
  8
0
  6
Solid_1
 62
     7
 10
0.100651
 20
0.193364
 30
0.0
  0
VERTEX
  5
678
  8
0
  6
Solid_1
 62
     7
 10
0.115651
 20
0.176364
 30
0.0
  0
VERTEX
  5
679
  8
0
  6
Solid_1
 62
     7
 10
0.136651
 20
0.170364
 30
0.0
  0
SEQEND
  5
669
  8
0
  6
Solid_1
 62
     7
  0
SOLID
  5
129
  8
0
 62
     7
 10
0.082831
 20
0.301916
 30
0.0
 11
0.088831
 21
0.303916
 31
0.0
 12
0.082831
 22
0.301916
 32
0.0
 13
0.090831
 23
0.309916
 33
0.0
  0
SOLID
  5
12A
  8
0
 62
     7
 10
0.090831
 20
0.309916
 30
0.0
 11
0.088831
 21
0.315916
 31
0.0
 12
0.090831
 22
0.309916
 32
0.0
 13
0.082831
 23
0.317916
 33
0.0
  0
SOLID
  5
12B
  8
0
 62
     7
 10
0.082831
 20
0.317916
 30
0.0
 11
0.076831
 21
0.315916
 31
0.0
 12
0.082831
 22
0.317916
 32
0.0
 13
0.074831
 23
0.309916
 33
0.0
  0
SOLID
  5
12C
  8
0
 62
     7
 10
0.074831
 20
0.309916
 30
0.0
 11
0.076831
 21
0.303916
 31
0.0
 12
0.074831
 22
0.309916
 32
0.0
 13
0.082831
 23
0.301916
 33
0.0
  0
SOLID
  5
12D
  8
0
 62
     7
 10
0.074831
 20
0.309916
 30
0.0
 11
0.082831
 21
0.301916
 31
0.0
 12
0.074831
 22
0.309916
 32
0.0
 13
0.090831
 23
0.309916
 33
0.0
  0
SOLID
  5
12E
  8
0
 62
     7
 10
0.074831
 20
0.309916
 30
0.0
 11
0.090831
 21
0.309916
 31
0.0
 12
0.074831
 22
0.309916
 32
0.0
 13
0.082831
 23
0.317916
 33
0.0
  0
SOLID
  5
12F
  8
0
 62
     7
 10
0.163116
 20
0.322244
 30
0.0
 11
0.169116
 21
0.324244
 31
0.0
 12
0.163116
 22
0.322244
 32
0.0
 13
0.171116
 23
0.330244
 33
0.0
  0
SOLID
  5
130
  8
0
 62
     7
 10
0.171116
 20
0.330244
 30
0.0
 11
0.169116
 21
0.336244
 31
0.0
 12
0.171116
 22
0.330244
 32
0.0
 13
0.163116
 23
0.338244
 33
0.0
  0
SOLID
  5
131
  8
0
 62
     7
 10
0.163116
 20
0.338244
 30
0.0
 11
0.157116
 21
0.336244
 31
0.0
 12
0.163116
 22
0.338244
 32
0.0
 13
0.155116
 23
0.330244
 33
0.0
  0
SOLID
  5
132
  8
0
 62
     7
 10
0.155116
 20
0.330244
 30
0.0
 11
0.157116
 21
0.324244
 31
0.0
 12
0.155116
 22
0.330244
 32
0.0
 13
0.163116
 23
0.322244
 33
0.0
  0
SOLID
  5
133
  8
0
 62
     7
 10
0.155116
 20
0.330244
 30
0.0
 11
0.163116
 21
0.322244
 31
0.0
 12
0.155116
 22
0.330244
 32
0.0
 13
0.171116
 23
0.330244
 33
0.0
  0
SOLID
  5
134
  8
0
 62
     7
 10
0.155116
 20
0.330244
 30
0.0
 11
0.171116
 21
0.330244
 31
0.0
 12
0.155116
 22
0.330244
 32
0.0
 13
0.163116
 23
0.338244
 33
0.0
  0
SOLID
  5
135
  8
0
 62
     7
 10
0.223083
 20
0.321748
 30
0.0
 11
0.229083
 21
0.323748
 31
0.0
 12
0.223083
 22
0.321748
 32
0.0
 13
0.231083
 23
0.329748
 33
0.0
  0
SOLID
  5
136
  8
0
 62
     7
 10
0.231083
 20
0.329748
 30
0.0
 11
0.229083
 21
0.335748
 31
0.0
 12
0.231083
 22
0.329748
 32
0.0
 13
0.223083
 23
0.337748
 33
0.0
  0
SOLID
  5
137
  8
0
 62
     7
 10
0.223083
 20
0.337748
 30
0.0
 11
0.217083
 21
0.335748
 31
0.0
 12
0.223083
 22
0.337748
 32
0.0
 13
0.215083
 23
0.329748
 33
0.0
  0
SOLID
  5
138
  8
0
 62
     7
 10
0.215083
 20
0.329748
 30
0.0
 11
0.217083
 21
0.323748
 31
0.0
 12
0.215083
 22
0.329748
 32
0.0
 13
0.223083
 23
0.321748
 33
0.0
  0
SOLID
  5
139
  8
0
 62
     7
 10
0.215083
 20
0.329748
 30
0.0
 11
0.223083
 21
0.321748
 31
0.0
 12
0.215083
 22
0.329748
 32
0.0
 13
0.231083
 23
0.329748
 33
0.0
  0
SOLID
  5
13A
  8
0
 62
     7
 10
0.215083
 20
0.329748
 30
0.0
 11
0.231083
 21
0.329748
 31
0.0
 12
0.215083
 22
0.329748
 32
0.0
 13
0.223083
 23
0.337748
 33
0.0
  0
SOLID
  5
13B
  8
0
 62
     7
 10
0.173028
 20
0.276135
 30
0.0
 11
0.179028
 21
0.278135
 31
0.0
 12
0.173028
 22
0.276135
 32
0.0
 13
0.181028
 23
0.284135
 33
0.0
  0
SOLID
  5
13C
  8
0
 62
     7
 10
0.181028
 20
0.284135
 30
0.0
 11
0.179028
 21
0.290135
 31
0.0
 12
0.181028
 22
0.284135
 32
0.0
 13
0.173028
 23
0.292135
 33
0.0
  0
SOLID
  5
13D
  8
0
 62
     7
 10
0.173028
 20
0.292135
 30
0.0
 11
0.167028
 21
0.290135
 31
0.0
 12
0.173028
 22
0.292135
 32
0.0
 13
0.165028
 23
0.284135
 33
0.0
  0
SOLID
  5
13E
  8
0
 62
     7
 10
0.165028
 20
0.284135
 30
0.0
 11
0.167028
 21
0.278135
 31
0.0
 12
0.165028
 22
0.284135
 32
0.0
 13
0.173028
 23
0.276135
 33
0.0
  0
SOLID
  5
13F
  8
0
 62
     7
 10
0.165028
 20
0.284135
 30
0.0
 11
0.173028
 21
0.276135
 31
0.0
 12
0.165028
 22
0.284135
 32
0.0
 13
0.181028
 23
0.284135
 33
0.0
  0
SOLID
  5
140
  8
0
 62
     7
 10
0.165028
 20
0.284135
 30
0.0
 11
0.181028
 21
0.284135
 31
0.0
 12
0.165028
 22
0.284135
 32
0.0
 13
0.173028
 23
0.292135
 33
0.0
  0
SOLID
  5
141
  8
0
 62
     7
 10
0.183931
 20
0.241429
 30
0.0
 11
0.189931
 21
0.243429
 31
0.0
 12
0.183931
 22
0.241429
 32
0.0
 13
0.191931
 23
0.249429
 33
0.0
  0
SOLID
  5
142
  8
0
 62
     7
 10
0.191931
 20
0.249429
 30
0.0
 11
0.189931
 21
0.255429
 31
0.0
 12
0.191931
 22
0.249429
 32
0.0
 13
0.183931
 23
0.257429
 33
0.0
  0
SOLID
  5
143
  8
0
 62
     7
 10
0.183931
 20
0.257429
 30
0.0
 11
0.177931
 21
0.255429
 31
0.0
 12
0.183931
 22
0.257429
 32
0.0
 13
0.175931
 23
0.249429
 33
0.0
  0
SOLID
  5
144
  8
0
 62
     7
 10
0.175931
 20
0.249429
 30
0.0
 11
0.177931
 21
0.243429
 31
0.0
 12
0.175931
 22
0.249429
 32
0.0
 13
0.183931
 23
0.241429
 33
0.0
  0
SOLID
  5
145
  8
0
 62
     7
 10
0.175931
 20
0.249429
 30
0.0
 11
0.183931
 21
0.241429
 31
0.0
 12
0.175931
 22
0.249429
 32
0.0
 13
0.191931
 23
0.249429
 33
0.0
  0
SOLID
  5
146
  8
0
 62
     7
 10
0.175931
 20
0.249429
 30
0.0
 11
0.191931
 21
0.249429
 31
0.0
 12
0.175931
 22
0.249429
 32
0.0
 13
0.183931
 23
0.257429
 33
0.0
  0
SOLID
  5
147
  8
0
 62
     7
 10
0.262234
 20
0.282084
 30
0.0
 11
0.268234
 21
0.284084
 31
0.0
 12
0.262234
 22
0.282084
 32
0.0
 13
0.270234
 23
0.290084
 33
0.0
  0
SOLID
  5
148
  8
0
 62
     7
 10
0.270234
 20
0.290084
 30
0.0
 11
0.268234
 21
0.296084
 31
0.0
 12
0.270234
 22
0.290084
 32
0.0
 13
0.262234
 23
0.298084
 33
0.0
  0
SOLID
  5
149
  8
0
 62
     7
 10
0.262234
 20
0.298084
 30
0.0
 11
0.256234
 21
0.296084
 31
0.0
 12
0.262234
 22
0.298084
 32
0.0
 13
0.254234
 23
0.290084
 33
0.0
  0
SOLID
  5
14A
  8
0
 62
     7
 10
0.254234
 20
0.290084
 30
0.0
 11
0.256234
 21
0.284084
 31
0.0
 12
0.254234
 22
0.290084
 32
0.0
 13
0.262234
 23
0.282084
 33
0.0
  0
SOLID
  5
14B
  8
0
 62
     7
 10
0.254234
 20
0.290084
 30
0.0
 11
0.262234
 21
0.282084
 31
0.0
 12
0.254234
 22
0.290084
 32
0.0
 13
0.270234
 23
0.290084
 33
0.0
  0
SOLID
  5
14C
  8
0
 62
     7
 10
0.254234
 20
0.290084
 30
0.0
 11
0.270234
 21
0.290084
 31
0.0
 12
0.254234
 22
0.290084
 32
0.0
 13
0.262234
 23
0.298084
 33
0.0
  0
SOLID
  5
14D
  8
0
 62
     7
 10
0.253314
 20
0.230025
 30
0.0
 11
0.259314
 21
0.232025
 31
0.0
 12
0.253314
 22
0.230025
 32
0.0
 13
0.261314
 23
0.238025
 33
0.0
  0
SOLID
  5
14E
  8
0
 62
     7
 10
0.261314
 20
0.238025
 30
0.0
 11
0.259314
 21
0.244025
 31
0.0
 12
0.261314
 22
0.238025
 32
0.0
 13
0.253314
 23
0.246025
 33
0.0
  0
SOLID
  5
14F
  8
0
 62
     7
 10
0.253314
 20
0.246025
 30
0.0
 11
0.247314
 21
0.244025
 31
0.0
 12
0.253314
 22
0.246025
 32
0.0
 13
0.245314
 23
0.238025
 33
0.0
  0
SOLID
  5
150
  8
0
 62
     7
 10
0.245314
 20
0.238025
 30
0.0
 11
0.247314
 21
0.232025
 31
0.0
 12
0.245314
 22
0.238025
 32
0.0
 13
0.253314
 23
0.230025
 33
0.0
  0
SOLID
  5
151
  8
0
 62
     7
 10
0.245314
 20
0.238025
 30
0.0
 11
0.253314
 21
0.230025
 31
0.0
 12
0.245314
 22
0.238025
 32
0.0
 13
0.261314
 23
0.238025
 33
0.0
  0
SOLID
  5
152
  8
0
 62
     7
 10
0.245314
 20
0.238025
 30
0.0
 11
0.261314
 21
0.238025
 31
0.0
 12
0.245314
 22
0.238025
 32
0.0
 13
0.253314
 23
0.246025
 33
0.0
  0
SOLID
  5
153
  8
0
 62
     7
 10
0.30882
 20
0.258286
 30
0.0
 11
0.31482
 21
0.260286
 31
0.0
 12
0.30882
 22
0.258286
 32
0.0
 13
0.31682
 23
0.266286
 33
0.0
  0
SOLID
  5
154
  8
0
 62
     7
 10
0.31682
 20
0.266286
 30
0.0
 11
0.31482
 21
0.272286
 31
0.0
 12
0.31682
 22
0.266286
 32
0.0
 13
0.30882
 23
0.274286
 33
0.0
  0
SOLID
  5
155
  8
0
 62
     7
 10
0.30882
 20
0.274286
 30
0.0
 11
0.30282
 21
0.272286
 31
0.0
 12
0.30882
 22
0.274286
 32
0.0
 13
0.30082
 23
0.266286
 33
0.0
  0
SOLID
  5
156
  8
0
 62
     7
 10
0.30082
 20
0.266286
 30
0.0
 11
0.30282
 21
0.260286
 31
0.0
 12
0.30082
 22
0.266286
 32
0.0
 13
0.30882
 23
0.258286
 33
0.0
  0
SOLID
  5
157
  8
0
 62
     7
 10
0.30082
 20
0.266286
 30
0.0
 11
0.30882
 21
0.258286
 31
0.0
 12
0.30082
 22
0.266286
 32
0.0
 13
0.31682
 23
0.266286
 33
0.0
  0
SOLID
  5
158
  8
0
 62
     7
 10
0.30082
 20
0.266286
 30
0.0
 11
0.31682
 21
0.266286
 31
0.0
 12
0.30082
 22
0.266286
 32
0.0
 13
0.30882
 23
0.274286
 33
0.0
  0
SOLID
  5
159
  8
0
 62
     7
 10
0.323192
 20
0.223084
 30
0.0
 11
0.329192
 21
0.225084
 31
0.0
 12
0.323192
 22
0.223084
 32
0.0
 13
0.331192
 23
0.231084
 33
0.0
  0
SOLID
  5
15A
  8
0
 62
     7
 10
0.331192
 20
0.231084
 30
0.0
 11
0.329192
 21
0.237084
 31
0.0
 12
0.331192
 22
0.231084
 32
0.0
 13
0.323192
 23
0.239084
 33
0.0
  0
SOLID
  5
15B
  8
0
 62
     7
 10
0.323192
 20
0.239084
 30
0.0
 11
0.317192
 21
0.237084
 31
0.0
 12
0.323192
 22
0.239084
 32
0.0
 13
0.315192
 23
0.231084
 33
0.0
  0
SOLID
  5
15C
  8
0
 62
     7
 10
0.315192
 20
0.231084
 30
0.0
 11
0.317192
 21
0.225084
 31
0.0
 12
0.315192
 22
0.231084
 32
0.0
 13
0.323192
 23
0.223084
 33
0.0
  0
SOLID
  5
15D
  8
0
 62
     7
 10
0.315192
 20
0.231084
 30
0.0
 11
0.323192
 21
0.223084
 31
0.0
 12
0.315192
 22
0.231084
 32
0.0
 13
0.331192
 23
0.231084
 33
0.0
  0
SOLID
  5
15E
  8
0
 62
     7
 10
0.315192
 20
0.231084
 30
0.0
 11
0.331192
 21
0.231084
 31
0.0
 12
0.315192
 22
0.231084
 32
0.0
 13
0.323192
 23
0.239084
 33
0.0
  0
SOLID
  5
15F
  8
0
 62
     7
 10
0.283545
 20
0.201765
 30
0.0
 11
0.289545
 21
0.203765
 31
0.0
 12
0.283545
 22
0.201765
 32
0.0
 13
0.291545
 23
0.209765
 33
0.0
  0
SOLID
  5
160
  8
0
 62
     7
 10
0.291545
 20
0.209765
 30
0.0
 11
0.289545
 21
0.215765
 31
0.0
 12
0.291545
 22
0.209765
 32
0.0
 13
0.283545
 23
0.217765
 33
0.0
  0
SOLID
  5
161
  8
0
 62
     7
 10
0.283545
 20
0.217765
 30
0.0
 11
0.277545
 21
0.215765
 31
0.0
 12
0.283545
 22
0.217765
 32
0.0
 13
0.275545
 23
0.209765
 33
0.0
  0
SOLID
  5
162
  8
0
 62
     7
 10
0.275545
 20
0.209765
 30
0.0
 11
0.277545
 21
0.203765
 31
0.0
 12
0.275545
 22
0.209765
 32
0.0
 13
0.283545
 23
0.201765
 33
0.0
  0
SOLID
  5
163
  8
0
 62
     7
 10
0.275545
 20
0.209765
 30
0.0
 11
0.283545
 21
0.201765
 31
0.0
 12
0.275545
 22
0.209765
 32
0.0
 13
0.291545
 23
0.209765
 33
0.0
  0
SOLID
  5
164
  8
0
 62
     7
 10
0.275545
 20
0.209765
 30
0.0
 11
0.291545
 21
0.209765
 31
0.0
 12
0.275545
 22
0.209765
 32
0.0
 13
0.283545
 23
0.217765
 33
0.0
  0
SOLID
  5
165
  8
0
 62
     7
 10
0.382663
 20
0.221597
 30
0.0
 11
0.388663
 21
0.223597
 31
0.0
 12
0.382663
 22
0.221597
 32
0.0
 13
0.390663
 23
0.229597
 33
0.0
  0
SOLID
  5
166
  8
0
 62
     7
 10
0.390663
 20
0.229597
 30
0.0
 11
0.388663
 21
0.235597
 31
0.0
 12
0.390663
 22
0.229597
 32
0.0
 13
0.382663
 23
0.237597
 33
0.0
  0
SOLID
  5
167
  8
0
 62
     7
 10
0.382663
 20
0.237597
 30
0.0
 11
0.376663
 21
0.235597
 31
0.0
 12
0.382663
 22
0.237597
 32
0.0
 13
0.374663
 23
0.229597
 33
0.0
  0
SOLID
  5
168
  8
0
 62
     7
 10
0.374663
 20
0.229597
 30
0.0
 11
0.376663
 21
0.223597
 31
0.0
 12
0.374663
 22
0.229597
 32
0.0
 13
0.382663
 23
0.221597
 33
0.0
  0
SOLID
  5
169
  8
0
 62
     7
 10
0.374663
 20
0.229597
 30
0.0
 11
0.382663
 21
0.221597
 31
0.0
 12
0.374663
 22
0.229597
 32
0.0
 13
0.390663
 23
0.229597
 33
0.0
  0
SOLID
  5
16A
  8
0
 62
     7
 10
0.374663
 20
0.229597
 30
0.0
 11
0.390663
 21
0.229597
 31
0.0
 12
0.374663
 22
0.229597
 32
0.0
 13
0.382663
 23
0.237597
 33
0.0
  0
SOLID
  5
16B
  8
0
 62
     7
 10
0.356397
 20
0.256303
 30
0.0
 11
0.362397
 21
0.258303
 31
0.0
 12
0.356397
 22
0.256303
 32
0.0
 13
0.364397
 23
0.264303
 33
0.0
  0
SOLID
  5
16C
  8
0
 62
     7
 10
0.364397
 20
0.264303
 30
0.0
 11
0.362397
 21
0.270303
 31
0.0
 12
0.364397
 22
0.264303
 32
0.0
 13
0.356397
 23
0.272303
 33
0.0
  0
SOLID
  5
16D
  8
0
 62
     7
 10
0.356397
 20
0.272303
 30
0.0
 11
0.350397
 21
0.270303
 31
0.0
 12
0.356397
 22
0.272303
 32
0.0
 13
0.348397
 23
0.264303
 33
0.0
  0
SOLID
  5
16E
  8
0
 62
     7
 10
0.348397
 20
0.264303
 30
0.0
 11
0.350397
 21
0.258303
 31
0.0
 12
0.348397
 22
0.264303
 32
0.0
 13
0.356397
 23
0.256303
 33
0.0
  0
SOLID
  5
16F
  8
0
 62
     7
 10
0.348397
 20
0.264303
 30
0.0
 11
0.356397
 21
0.256303
 31
0.0
 12
0.348397
 22
0.264303
 32
0.0
 13
0.364397
 23
0.264303
 33
0.0
  0
SOLID
  5
170
  8
0
 62
     7
 10
0.348397
 20
0.264303
 30
0.0
 11
0.364397
 21
0.264303
 31
0.0
 12
0.348397
 22
0.264303
 32
0.0
 13
0.356397
 23
0.272303
 33
0.0
  0
SOLID
  5
171
  8
0
 62
     7
 10
0.363335
 20
0.322244
 30
0.0
 11
0.369335
 21
0.324244
 31
0.0
 12
0.363335
 22
0.322244
 32
0.0
 13
0.371335
 23
0.330244
 33
0.0
  0
SOLID
  5
172
  8
0
 62
     7
 10
0.371335
 20
0.330244
 30
0.0
 11
0.369335
 21
0.336244
 31
0.0
 12
0.371335
 22
0.330244
 32
0.0
 13
0.363335
 23
0.338244
 33
0.0
  0
SOLID
  5
173
  8
0
 62
     7
 10
0.363335
 20
0.338244
 30
0.0
 11
0.357335
 21
0.336244
 31
0.0
 12
0.363335
 22
0.338244
 32
0.0
 13
0.355335
 23
0.330244
 33
0.0
  0
SOLID
  5
174
  8
0
 62
     7
 10
0.355335
 20
0.330244
 30
0.0
 11
0.357335
 21
0.324244
 31
0.0
 12
0.355335
 22
0.330244
 32
0.0
 13
0.363335
 23
0.322244
 33
0.0
  0
SOLID
  5
175
  8
0
 62
     7
 10
0.355335
 20
0.330244
 30
0.0
 11
0.363335
 21
0.322244
 31
0.0
 12
0.355335
 22
0.330244
 32
0.0
 13
0.371335
 23
0.330244
 33
0.0
  0
SOLID
  5
176
  8
0
 62
     7
 10
0.355335
 20
0.330244
 30
0.0
 11
0.371335
 21
0.330244
 31
0.0
 12
0.355335
 22
0.330244
 32
0.0
 13
0.363335
 23
0.338244
 33
0.0
  0
SOLID
  5
177
  8
0
 62
     7
 10
0.382663
 20
0.361908
 30
0.0
 11
0.388663
 21
0.363908
 31
0.0
 12
0.382663
 22
0.361908
 32
0.0
 13
0.390663
 23
0.369908
 33
0.0
  0
SOLID
  5
178
  8
0
 62
     7
 10
0.390663
 20
0.369908
 30
0.0
 11
0.388663
 21
0.375908
 31
0.0
 12
0.390663
 22
0.369908
 32
0.0
 13
0.382663
 23
0.377908
 33
0.0
  0
SOLID
  5
179
  8
0
 62
     7
 10
0.382663
 20
0.377908
 30
0.0
 11
0.376663
 21
0.375908
 31
0.0
 12
0.382663
 22
0.377908
 32
0.0
 13
0.374663
 23
0.369908
 33
0.0
  0
SOLID
  5
17A
  8
0
 62
     7
 10
0.374663
 20
0.369908
 30
0.0
 11
0.376663
 21
0.363908
 31
0.0
 12
0.374663
 22
0.369908
 32
0.0
 13
0.382663
 23
0.361908
 33
0.0
  0
SOLID
  5
17B
  8
0
 62
     7
 10
0.374663
 20
0.369908
 30
0.0
 11
0.382663
 21
0.361908
 31
0.0
 12
0.374663
 22
0.369908
 32
0.0
 13
0.390663
 23
0.369908
 33
0.0
  0
SOLID
  5
17C
  8
0
 62
     7
 10
0.374663
 20
0.369908
 30
0.0
 11
0.390663
 21
0.369908
 31
0.0
 12
0.374663
 22
0.369908
 32
0.0
 13
0.382663
 23
0.377908
 33
0.0
  0
SOLID
  5
17D
  8
0
 62
     7
 10
0.063503
 20
0.361908
 30
0.0
 11
0.069503
 21
0.363908
 31
0.0
 12
0.063503
 22
0.361908
 32
0.0
 13
0.071503
 23
0.369908
 33
0.0
  0
SOLID
  5
17E
  8
0
 62
     7
 10
0.071503
 20
0.369908
 30
0.0
 11
0.069503
 21
0.375908
 31
0.0
 12
0.071503
 22
0.369908
 32
0.0
 13
0.063503
 23
0.377908
 33
0.0
  0
SOLID
  5
17F
  8
0
 62
     7
 10
0.063503
 20
0.377908
 30
0.0
 11
0.057503
 21
0.375908
 31
0.0
 12
0.063503
 22
0.377908
 32
0.0
 13
0.055503
 23
0.369908
 33
0.0
  0
SOLID
  5
180
  8
0
 62
     7
 10
0.055503
 20
0.369908
 30
0.0
 11
0.057503
 21
0.363908
 31
0.0
 12
0.055503
 22
0.369908
 32
0.0
 13
0.063503
 23
0.361908
 33
0.0
  0
SOLID
  5
181
  8
0
 62
     7
 10
0.055503
 20
0.369908
 30
0.0
 11
0.063503
 21
0.361908
 31
0.0
 12
0.055503
 22
0.369908
 32
0.0
 13
0.071503
 23
0.369908
 33
0.0
  0
SOLID
  5
182
  8
0
 62
     7
 10
0.055503
 20
0.369908
 30
0.0
 11
0.071503
 21
0.369908
 31
0.0
 12
0.055503
 22
0.369908
 32
0.0
 13
0.063503
 23
0.377908
 33
0.0
  0
SOLID
  5
183
  8
0
 62
     7
 10
0.022864
 20
0.382235
 30
0.0
 11
0.028864
 21
0.384235
 31
0.0
 12
0.022864
 22
0.382235
 32
0.0
 13
0.030864
 23
0.390235
 33
0.0
  0
SOLID
  5
184
  8
0
 62
     7
 10
0.030864
 20
0.390235
 30
0.0
 11
0.028864
 21
0.396235
 31
0.0
 12
0.030864
 22
0.390235
 32
0.0
 13
0.022864
 23
0.398235
 33
0.0
  0
SOLID
  5
185
  8
0
 62
     7
 10
0.022864
 20
0.398235
 30
0.0
 11
0.016864
 21
0.396235
 31
0.0
 12
0.022864
 22
0.398235
 32
0.0
 13
0.014864
 23
0.390235
 33
0.0
  0
SOLID
  5
186
  8
0
 62
     7
 10
0.014864
 20
0.390235
 30
0.0
 11
0.016864
 21
0.384235
 31
0.0
 12
0.014864
 22
0.390235
 32
0.0
 13
0.022864
 23
0.382235
 33
0.0
  0
SOLID
  5
187
  8
0
 62
     7
 10
0.014864
 20
0.390235
 30
0.0
 11
0.022864
 21
0.382235
 31
0.0
 12
0.014864
 22
0.390235
 32
0.0
 13
0.030864
 23
0.390235
 33
0.0
  0
SOLID
  5
188
  8
0
 62
     7
 10
0.014864
 20
0.390235
 30
0.0
 11
0.030864
 21
0.390235
 31
0.0
 12
0.014864
 22
0.390235
 32
0.0
 13
0.022864
 23
0.398235
 33
0.0
  0
SOLID
  5
189
  8
0
 62
     7
 10
0.022864
 20
0.281588
 30
0.0
 11
0.028864
 21
0.283588
 31
0.0
 12
0.022864
 22
0.281588
 32
0.0
 13
0.030864
 23
0.289588
 33
0.0
  0
SOLID
  5
18A
  8
0
 62
     7
 10
0.030864
 20
0.289588
 30
0.0
 11
0.028864
 21
0.295588
 31
0.0
 12
0.030864
 22
0.289588
 32
0.0
 13
0.022864
 23
0.297588
 33
0.0
  0
SOLID
  5
18B
  8
0
 62
     7
 10
0.022864
 20
0.297588
 30
0.0
 11
0.016864
 21
0.295588
 31
0.0
 12
0.022864
 22
0.297588
 32
0.0
 13
0.014864
 23
0.289588
 33
0.0
  0
SOLID
  5
18C
  8
0
 62
     7
 10
0.014864
 20
0.289588
 30
0.0
 11
0.016864
 21
0.283588
 31
0.0
 12
0.014864
 22
0.289588
 32
0.0
 13
0.022864
 23
0.281588
 33
0.0
  0
SOLID
  5
18D
  8
0
 62
     7
 10
0.014864
 20
0.289588
 30
0.0
 11
0.022864
 21
0.281588
 31
0.0
 12
0.014864
 22
0.289588
 32
0.0
 13
0.030864
 23
0.289588
 33
0.0
  0
SOLID
  5
18E
  8
0
 62
     7
 10
0.014864
 20
0.289588
 30
0.0
 11
0.030864
 21
0.289588
 31
0.0
 12
0.014864
 22
0.289588
 32
0.0
 13
0.022864
 23
0.297588
 33
0.0
  0
SOLID
  5
18F
  8
0
 62
     7
 10
0.083326
 20
0.222092
 30
0.0
 11
0.089326
 21
0.224093
 31
0.0
 12
0.083326
 22
0.222092
 32
0.0
 13
0.091326
 23
0.230093
 33
0.0
  0
SOLID
  5
190
  8
0
 62
     7
 10
0.091326
 20
0.230093
 30
0.0
 11
0.089326
 21
0.236093
 31
0.0
 12
0.091326
 22
0.230093
 32
0.0
 13
0.083326
 23
0.238093
 33
0.0
  0
SOLID
  5
191
  8
0
 62
     7
 10
0.083326
 20
0.238093
 30
0.0
 11
0.077326
 21
0.236093
 31
0.0
 12
0.083326
 22
0.238093
 32
0.0
 13
0.075326
 23
0.230093
 33
0.0
  0
SOLID
  5
192
  8
0
 62
     7
 10
0.075326
 20
0.230093
 30
0.0
 11
0.077326
 21
0.224093
 31
0.0
 12
0.075326
 22
0.230093
 32
0.0
 13
0.083326
 23
0.222092
 33
0.0
  0
SOLID
  5
193
  8
0
 62
     7
 10
0.075326
 20
0.230093
 30
0.0
 11
0.083326
 21
0.222092
 31
0.0
 12
0.075326
 22
0.230093
 32
0.0
 13
0.091326
 23
0.230093
 33
0.0
  0
SOLID
  5
194
  8
0
 62
     7
 10
0.075326
 20
0.230093
 30
0.0
 11
0.091326
 21
0.230093
 31
0.0
 12
0.075326
 22
0.230093
 32
0.0
 13
0.083326
 23
0.238093
 33
0.0
  0
SOLID
  5
195
  8
0
 62
     7
 10
0.063007
 20
0.181933
 30
0.0
 11
0.069007
 21
0.183933
 31
0.0
 12
0.063007
 22
0.181933
 32
0.0
 13
0.071007
 23
0.189933
 33
0.0
  0
SOLID
  5
196
  8
0
 62
     7
 10
0.071007
 20
0.189933
 30
0.0
 11
0.069007
 21
0.195933
 31
0.0
 12
0.071007
 22
0.189933
 32
0.0
 13
0.063007
 23
0.197933
 33
0.0
  0
SOLID
  5
197
  8
0
 62
     7
 10
0.063007
 20
0.197933
 30
0.0
 11
0.057007
 21
0.195933
 31
0.0
 12
0.063007
 22
0.197933
 32
0.0
 13
0.055007
 23
0.189933
 33
0.0
  0
SOLID
  5
198
  8
0
 62
     7
 10
0.055007
 20
0.189933
 30
0.0
 11
0.057007
 21
0.183933
 31
0.0
 12
0.055007
 22
0.189933
 32
0.0
 13
0.063007
 23
0.181933
 33
0.0
  0
SOLID
  5
199
  8
0
 62
     7
 10
0.055007
 20
0.189933
 30
0.0
 11
0.063007
 21
0.181933
 31
0.0
 12
0.055007
 22
0.189933
 32
0.0
 13
0.071007
 23
0.189933
 33
0.0
  0
SOLID
  5
19A
  8
0
 62
     7
 10
0.055007
 20
0.189933
 30
0.0
 11
0.071007
 21
0.189933
 31
0.0
 12
0.055007
 22
0.189933
 32
0.0
 13
0.063007
 23
0.197933
 33
0.0
  0
SOLID
  5
19B
  8
0
 62
     7
 10
0.102654
 20
0.161605
 30
0.0
 11
0.108654
 21
0.163605
 31
0.0
 12
0.102654
 22
0.161605
 32
0.0
 13
0.110654
 23
0.169605
 33
0.0
  0
SOLID
  5
19C
  8
0
 62
     7
 10
0.110654
 20
0.169605
 30
0.0
 11
0.108654
 21
0.175605
 31
0.0
 12
0.110654
 22
0.169605
 32
0.0
 13
0.102654
 23
0.177605
 33
0.0
  0
SOLID
  5
19D
  8
0
 62
     7
 10
0.102654
 20
0.177605
 30
0.0
 11
0.096654
 21
0.175605
 31
0.0
 12
0.102654
 22
0.177605
 32
0.0
 13
0.094654
 23
0.169605
 33
0.0
  0
SOLID
  5
19E
  8
0
 62
     7
 10
0.094654
 20
0.169605
 30
0.0
 11
0.096654
 21
0.163605
 31
0.0
 12
0.094654
 22
0.169605
 32
0.0
 13
0.102654
 23
0.161605
 33
0.0
  0
SOLID
  5
19F
  8
0
 62
     7
 10
0.094654
 20
0.169605
 30
0.0
 11
0.102654
 21
0.161605
 31
0.0
 12
0.094654
 22
0.169605
 32
0.0
 13
0.110654
 23
0.169605
 33
0.0
  0
SOLID
  5
1A0
  8
0
 62
     7
 10
0.094654
 20
0.169605
 30
0.0
 11
0.110654
 21
0.169605
 31
0.0
 12
0.094654
 22
0.169605
 32
0.0
 13
0.102654
 23
0.177605
 33
0.0
  0
SOLID
  5
1A1
  8
0
 62
     7
 10
0.143293
 20
0.142269
 30
0.0
 11
0.149293
 21
0.144269
 31
0.0
 12
0.143293
 22
0.142269
 32
0.0
 13
0.151293
 23
0.150269
 33
0.0
  0
SOLID
  5
1A2
  8
0
 62
     7
 10
0.151293
 20
0.150269
 30
0.0
 11
0.149293
 21
0.156269
 31
0.0
 12
0.151293
 22
0.150269
 32
0.0
 13
0.143293
 23
0.158269
 33
0.0
  0
SOLID
  5
1A3
  8
0
 62
     7
 10
0.143293
 20
0.158269
 30
0.0
 11
0.137293
 21
0.156269
 31
0.0
 12
0.143293
 22
0.158269
 32
0.0
 13
0.135293
 23
0.150269
 33
0.0
  0
SOLID
  5
1A4
  8
0
 62
     7
 10
0.135293
 20
0.150269
 30
0.0
 11
0.137293
 21
0.144269
 31
0.0
 12
0.135293
 22
0.150269
 32
0.0
 13
0.143293
 23
0.142269
 33
0.0
  0
SOLID
  5
1A5
  8
0
 62
     7
 10
0.135293
 20
0.150269
 30
0.0
 11
0.143293
 21
0.142269
 31
0.0
 12
0.135293
 22
0.150269
 32
0.0
 13
0.151293
 23
0.150269
 33
0.0
  0
SOLID
  5
1A6
  8
0
 62
     7
 10
0.135293
 20
0.150269
 30
0.0
 11
0.151293
 21
0.150269
 31
0.0
 12
0.135293
 22
0.150269
 32
0.0
 13
0.143293
 23
0.158269
 33
0.0
  0
SOLID
  5
1A7
  8
0
 62
     7
 10
0.189878
 20
0.121941
 30
0.0
 11
0.195878
 21
0.123941
 31
0.0
 12
0.189878
 22
0.121941
 32
0.0
 13
0.197878
 23
0.129941
 33
0.0
  0
SOLID
  5
1A8
  8
0
 62
     7
 10
0.197878
 20
0.129941
 30
0.0
 11
0.195878
 21
0.135941
 31
0.0
 12
0.197878
 22
0.129941
 32
0.0
 13
0.189878
 23
0.137941
 33
0.0
  0
SOLID
  5
1A9
  8
0
 62
     7
 10
0.189878
 20
0.137941
 30
0.0
 11
0.183878
 21
0.135941
 31
0.0
 12
0.189878
 22
0.137941
 32
0.0
 13
0.181878
 23
0.129941
 33
0.0
  0
SOLID
  5
1AA
  8
0
 62
     7
 10
0.181878
 20
0.129941
 30
0.0
 11
0.183878
 21
0.123941
 31
0.0
 12
0.181878
 22
0.129941
 32
0.0
 13
0.189878
 23
0.121941
 33
0.0
  0
SOLID
  5
1AB
  8
0
 62
     7
 10
0.181878
 20
0.129941
 30
0.0
 11
0.189878
 21
0.121941
 31
0.0
 12
0.181878
 22
0.129941
 32
0.0
 13
0.197878
 23
0.129941
 33
0.0
  0
SOLID
  5
1AC
  8
0
 62
     7
 10
0.181878
 20
0.129941
 30
0.0
 11
0.197878
 21
0.129941
 31
0.0
 12
0.181878
 22
0.129941
 32
0.0
 13
0.189878
 23
0.137941
 33
0.0
  0
SOLID
  5
1AD
  8
0
 62
     7
 10
0.243402
 20
0.162101
 30
0.0
 11
0.249402
 21
0.164101
 31
0.0
 12
0.243402
 22
0.162101
 32
0.0
 13
0.251402
 23
0.170101
 33
0.0
  0
SOLID
  5
1AE
  8
0
 62
     7
 10
0.251402
 20
0.170101
 30
0.0
 11
0.249402
 21
0.176101
 31
0.0
 12
0.251402
 22
0.170101
 32
0.0
 13
0.243402
 23
0.178101
 33
0.0
  0
SOLID
  5
1AF
  8
0
 62
     7
 10
0.243402
 20
0.178101
 30
0.0
 11
0.237402
 21
0.176101
 31
0.0
 12
0.243402
 22
0.178101
 32
0.0
 13
0.235402
 23
0.170101
 33
0.0
  0
SOLID
  5
1B0
  8
0
 62
     7
 10
0.235402
 20
0.170101
 30
0.0
 11
0.237402
 21
0.164101
 31
0.0
 12
0.235402
 22
0.170101
 32
0.0
 13
0.243402
 23
0.162101
 33
0.0
  0
SOLID
  5
1B1
  8
0
 62
     7
 10
0.235402
 20
0.170101
 30
0.0
 11
0.243402
 21
0.162101
 31
0.0
 12
0.235402
 22
0.170101
 32
0.0
 13
0.251402
 23
0.170101
 33
0.0
  0
SOLID
  5
1B2
  8
0
 62
     7
 10
0.235402
 20
0.170101
 30
0.0
 11
0.251402
 21
0.170101
 31
0.0
 12
0.235402
 22
0.170101
 32
0.0
 13
0.243402
 23
0.178101
 33
0.0
  0
SOLID
  5
1B3
  8
0
 62
     7
 10
0.263226
 20
0.121445
 30
0.0
 11
0.269226
 21
0.123445
 31
0.0
 12
0.263226
 22
0.121445
 32
0.0
 13
0.271226
 23
0.129445
 33
0.0
  0
SOLID
  5
1B4
  8
0
 62
     7
 10
0.271226
 20
0.129445
 30
0.0
 11
0.269226
 21
0.135445
 31
0.0
 12
0.271226
 22
0.129445
 32
0.0
 13
0.263226
 23
0.137445
 33
0.0
  0
SOLID
  5
1B5
  8
0
 62
     7
 10
0.263226
 20
0.137445
 30
0.0
 11
0.257226
 21
0.135445
 31
0.0
 12
0.263226
 22
0.137445
 32
0.0
 13
0.255226
 23
0.129445
 33
0.0
  0
SOLID
  5
1B6
  8
0
 62
     7
 10
0.255226
 20
0.129445
 30
0.0
 11
0.257226
 21
0.123445
 31
0.0
 12
0.255226
 22
0.129445
 32
0.0
 13
0.263226
 23
0.121445
 33
0.0
  0
SOLID
  5
1B7
  8
0
 62
     7
 10
0.255226
 20
0.129445
 30
0.0
 11
0.263226
 21
0.121445
 31
0.0
 12
0.255226
 22
0.129445
 32
0.0
 13
0.271226
 23
0.129445
 33
0.0
  0
SOLID
  5
1B8
  8
0
 62
     7
 10
0.255226
 20
0.129445
 30
0.0
 11
0.271226
 21
0.129445
 31
0.0
 12
0.255226
 22
0.129445
 32
0.0
 13
0.263226
 23
0.137445
 33
0.0
  0
SOLID
  5
1B9
  8
0
 62
     7
 10
0.303864
 20
0.061454
 30
0.0
 11
0.309864
 21
0.063454
 31
0.0
 12
0.303864
 22
0.061454
 32
0.0
 13
0.311864
 23
0.069454
 33
0.0
  0
SOLID
  5
1BA
  8
0
 62
     7
 10
0.311864
 20
0.069454
 30
0.0
 11
0.309864
 21
0.075454
 31
0.0
 12
0.311864
 22
0.069454
 32
0.0
 13
0.303864
 23
0.077454
 33
0.0
  0
SOLID
  5
1BB
  8
0
 62
     7
 10
0.303864
 20
0.077454
 30
0.0
 11
0.297864
 21
0.075454
 31
0.0
 12
0.303864
 22
0.077454
 32
0.0
 13
0.295864
 23
0.069454
 33
0.0
  0
SOLID
  5
1BC
  8
0
 62
     7
 10
0.295864
 20
0.069454
 30
0.0
 11
0.297864
 21
0.063454
 31
0.0
 12
0.295864
 22
0.069454
 32
0.0
 13
0.303864
 23
0.061454
 33
0.0
  0
SOLID
  5
1BD
  8
0
 62
     7
 10
0.295864
 20
0.069454
 30
0.0
 11
0.303864
 21
0.061454
 31
0.0
 12
0.295864
 22
0.069454
 32
0.0
 13
0.311864
 23
0.069454
 33
0.0
  0
SOLID
  5
1BE
  8
0
 62
     7
 10
0.295864
 20
0.069454
 30
0.0
 11
0.311864
 21
0.069454
 31
0.0
 12
0.295864
 22
0.069454
 32
0.0
 13
0.303864
 23
0.077454
 33
0.0
  0
SOLID
  5
1BF
  8
0
 62
     7
 10
0.343016
 20
0.001958
 30
0.0
 11
0.349016
 21
0.003958
 31
0.0
 12
0.343016
 22
0.001958
 32
0.0
 13
0.351016
 23
0.009958
 33
0.0
  0
SOLID
  5
1C0
  8
0
 62
     7
 10
0.351016
 20
0.009958
 30
0.0
 11
0.349016
 21
0.015958
 31
0.0
 12
0.351016
 22
0.009958
 32
0.0
 13
0.343016
 23
0.017958
 33
0.0
  0
SOLID
  5
1C1
  8
0
 62
     7
 10
0.343016
 20
0.017958
 30
0.0
 11
0.337016
 21
0.015958
 31
0.0
 12
0.343016
 22
0.017958
 32
0.0
 13
0.335016
 23
0.009958
 33
0.0
  0
SOLID
  5
1C2
  8
0
 62
     7
 10
0.335016
 20
0.009958
 30
0.0
 11
0.337016
 21
0.003958
 31
0.0
 12
0.335016
 22
0.009958
 32
0.0
 13
0.343016
 23
0.001958
 33
0.0
  0
SOLID
  5
1C3
  8
0
 62
     7
 10
0.335016
 20
0.009958
 30
0.0
 11
0.343016
 21
0.001958
 31
0.0
 12
0.335016
 22
0.009958
 32
0.0
 13
0.351016
 23
0.009958
 33
0.0
  0
SOLID
  5
1C4
  8
0
 62
     7
 10
0.335016
 20
0.009958
 30
0.0
 11
0.351016
 21
0.009958
 31
0.0
 12
0.335016
 22
0.009958
 32
0.0
 13
0.343016
 23
0.017958
 33
0.0
  0
ENDSEC
  0
EOF
