  0
SECTION
  2
HEADER
  9
$ACADVER
  1
AC1009
  9
$EXTMIN
 10
-0.05
 20
-0.05
  9
$EXTMAX
 10
1.05
 20
1.05
  0
ENDSEC
  0
SECTION
  2
TABLES
   0
TABLE
  2
VPORT
 70
     2
  0
VPORT
  2
*ACTIVE
 70
     0
 10
0.0
 20
0.0
 11
1.0
 21
1.0
 12
0.5
 22
0.5
 13
0.0
 23
0.0
 14
1.0
 24
1.0
 15
0.0
 25
0.0
 16
0.0
 26
0.0
 36
1.0
 17
0.0
 27
0.0
 37
0.0
 40
1.1
 41
1.86
 42
50.0
 43
0.0
 44
0.0
 50
0.0
 51
0.0
 71
     0
 72
   100
 73
     1
 74
     1
 75
     0
 76
     0
 77
     0
 78
     0
  0
ENDTAB
  0
TABLE
  2
LTYPE
 70
11
  0
LTYPE
  2
Solid
 70
0
  3
______
 72
65
 73
0
 40
0
  0
LTYPE
  2
Dash
 70
64
  3
_ _ _ _ _ _
 72
65
 73
2
 40
0.12
 49
0.08
 49
-0.04
  0
LTYPE
  2
Dot
 70
64
  3
. . . . . .
 72
65
 73
2
 40
0.04
 49
0
 49
-0.04
  0
LTYPE
  2
Dash-Dot
 70
64
  3
_ . _ . _ . _ .
 72
65
 73
4
 40
0.14
 49
0.06
 49
-0.04
 49
0
 49
-0.04
  0
LTYPE
  2
Dash-Dot-Dot
 70
64
  3
_ . . _ . . _ . .
 72
65
 73
6
 40
0.18
 49
0.06
 49
-0.04
 49
0
 49
-0.04
 49
0
 49
-0.04
  0
LTYPE
  2
Dash-Dash-Dot
 70
64
  3
_ _ . _ _ . _ _ .
 72
65
 73
6
 40
0.24
 49
0.06
 49
-0.04
 49
0.06
 49
-0.04
 49
0
 49
-0.04
  0
LTYPE
  2
Dash2
 70
64
  3
__ __ __ __ __ __
 72
65
 73
2
 40
0.16
 49
0.12
 49
-0.04
  0
LTYPE
  2
Dot2
 70
64
  3
.  .  .  .  .  .
 72
65
 73
2
 40
0.06
 49
0
 49
-0.06
  0
LTYPE
  2
Dash-Dot2
 70
64
  3
__ . __ . __ . __ .
 72
65
 73
4
 40
0.17
 49
0.09
 49
-0.04
 49
0
 49
-0.04
  0
LTYPE
  2
Dash-Dot-Dot2
 70
64
  3
__ . . __ . . __ . . __ . .
 72
65
 73
6
 40
0.21
 49
0.09
 49
-0.04
 49
0
 49
-0.04
 49
0
 49
-0.04
  0
LTYPE
  2
Dash-Dash-Dot2
 70
64
  3
__ __ . __ __ . __ __ .
 72
65
 73
6
 40
0.3
 49
0.09
 49
-0.04
 49
0.09
 49
-0.04
 49
0
 49
-0.04
  0
LTYPE
  2
Dash3
 70
64
  3
___  ___  ___  ___
 72
65
 73
2
 40
0.22
 49
0.16
 49
-0.06
  0
LTYPE
  2
Dot3
 70
64
  3
.   .   .   .   .   .
 72
65
 73
2
 40
0.08
 49
0
 49
-0.08
  0
LTYPE
  2
Dash-Dot3
 70
64
  3
___  .  ___  .  __   . ___  .
 72
65
 73
4
 40
0.24
 49
0.12
 49
-0.06
 49
0
 49
-0.06
  0
LTYPE
  2
Dash-Dot-Dot3
 70
64
  3
___  .  .  ___  .  .  ___  .  .
 72
65
 73
6
 40
0.3
 49
0.12
 49
-0.06
 49
0
 49
-0.06
 49
0
 49
-0.06
  0
LTYPE
  2
Dash-Dash-Dot3
 70
64
  3
___  ___  .  ___  ___  .  ___  ___  .
 72
65
 73
6
 40
0.42
 49
0.12
 49
-0.06
 49
0.12
 49
-0.06
 49
0
 49
-0.06
  0
ENDTAB
  0
TABLE
  2
LAYER
 70
1
  0
LAYER
  2
0
 70
0
 62
7
  6
Solid
  0
ENDTAB
  0
ENDSEC
  0
SECTION
  2
BLOCKS
  0
ENDSEC
  0
SECTION
  2
ENTITIES
  0
SOLID
  8
0
 62
8
 10
7.39855435961276E-02
 20
3.42872670747121E-02
 30
0
 11
7.86329740296244E-02
 21
2.65383031325276E-02
 31
0
 12
7.39855435961276E-02
 22
3.42872670747121E-02
 32
0
 13
8.48295479409534E-02
 23
2.18889247672169E-02
 33
0
  0
SOLID
  8
0
 62
8
 10
5.53958218621404E-02
 20
0.035837059863149
 30
0
 11
5.22975349064759E-02
 21
4.35860238053335E-02
 31
0
 12
5.53958218621404E-02
 22
0.035837059863149
 32
0
 13
3.99043870838178E-02
 23
4.97851949590811E-02
 33
0
  0
SOLID
  8
0
 62
8
 10
4.14535305616501E-02
 20
0.136573591111547
 30
0
 11
3.06095262168242E-02
 21
0.144322555053732
 31
0
 12
4.14535305616501E-02
 22
0.136573591111547
 32
0
 13
2.13146653498307E-02
 23
0.125725041592489
 33
0
  0
SOLID
  8
0
 62
8
 10
7.08872566404631E-02
 20
5.75341589012656E-02
 30
0
 11
7.08872566404631E-02
 21
4.97851949590811E-02
 31
0
 12
7.08872566404631E-02
 22
5.75341589012656E-02
 32
0
 13
7.39855435961276E-02
 23
3.42872670747121E-02
 33
0
  0
SOLID
  8
0
 62
8
 10
4.91992479508114E-02
 20
1.25901680365955E-02
 30
0
 11
0.058494108817805
 21
1.72395464019062E-02
 31
0
 12
4.91992479508114E-02
 22
1.25901680365955E-02
 32
0
 13
5.53958218621404E-02
 23
0.035837059863149
 33
0
  0
SOLID
  8
0
 62
8
 10
2.59620957833274E-02
 20
0.02033913197878
 30
0
 11
3.37078131724888E-02
 21
1.56897536134693E-02
 31
0
 12
2.59620957833274E-02
 22
0.02033913197878
 32
0
 13
4.91992479508114E-02
 23
1.25901680365955E-02
 33
0
  0
SOLID
  8
0
 62
8
 10
8.48295479409534E-02
 20
2.18889247672169E-02
 30
0
 11
9.87718392414438E-02
 21
2.34387175556538E-02
 31
0
 12
8.48295479409534E-02
 22
2.18889247672169E-02
 32
0
 13
0.108066700108437
 23
3.27374742862752E-02
 33
0
  0
SOLID
  8
0
 62
8
 10
2.7249436158435E-03
 20
0.051334987747518
 30
0
 11
2.7249436158435E-03
 21
3.89366454400228E-02
 31
0
 12
2.7249436158435E-03
 22
0.051334987747518
 32
0
 13
1.20198044828371E-02
 23
2.65383031325276E-02
 33
0
  0
SOLID
  8
0
 62
8
 10
2.13146653498307E-02
 20
0.125725041592489
 30
0
 11
1.20198044828371E-02
 21
0.111776906496557
 31
0
 12
2.13146653498307E-02
 22
0.125725041592489
 32
0
 13
1.20198044828371E-02
 23
9.78287714006249E-02
 33
0
  0
SOLID
  8
0
 62
8
 10
0.101870126197108
 20
8.38806363046928E-02
 30
0
 11
9.56735522857793E-02
 21
0.096278978612188
 31
0
 12
0.101870126197108
 22
8.38806363046928E-02
 32
0
 13
8.32804044631212E-02
 23
0.108677320919683
 33
0
  0
SOLID
  8
0
 62
8
 10
3.68061001281533E-02
 20
5.90839516897025E-02
 30
0
 11
4.14535305616501E-02
 21
7.14822939971977E-02
 31
0
 12
3.68061001281533E-02
 22
5.90839516897025E-02
 32
0
 13
4.76501044729791E-02
 23
8.85300146700035E-02
 33
0
  0
SOLID
  8
0
 62
8
 10
0.108066700108437
 20
3.27374742862752E-02
 30
0
 11
0.111164987064102
 21
0.051334987747518
 31
0
 12
0.108066700108437
 22
3.27374742862752E-02
 32
0
 13
0.108066700108437
 23
6.52831228434501E-02
 33
0
  0
SOLID
  8
0
 62
8
 10
2.59620957833274E-02
 20
0.02033913197878
 30
0
 11
4.91992479508114E-02
 21
1.25901680365955E-02
 31
0
 12
2.59620957833274E-02
 22
0.02033913197878
 32
0
 13
5.53958218621404E-02
 23
0.035837059863149
 33
0
  0
SOLID
  8
0
 62
8
 10
2.59620957833274E-02
 20
0.02033913197878
 30
0
 11
5.53958218621404E-02
 21
0.035837059863149
 31
0
 12
2.59620957833274E-02
 22
0.02033913197878
 32
0
 13
3.99043870838178E-02
 23
4.97851949590811E-02
 33
0
  0
SOLID
  8
0
 62
8
 10
7.39855435961276E-02
 20
3.42872670747121E-02
 30
0
 11
8.48295479409534E-02
 21
2.18889247672169E-02
 31
0
 12
7.39855435961276E-02
 22
3.42872670747121E-02
 32
0
 13
0.108066700108437
 23
3.27374742862752E-02
 33
0
  0
SOLID
  8
0
 62
8
 10
1.20198044828371E-02
 20
2.65383031325276E-02
 30
0
 11
2.59620957833274E-02
 21
0.02033913197878
 31
0
 12
1.20198044828371E-02
 22
2.65383031325276E-02
 32
0
 13
3.99043870838178E-02
 23
4.97851949590811E-02
 33
0
  0
SOLID
  8
0
 62
8
 10
2.7249436158435E-03
 20
0.051334987747518
 30
0
 11
1.20198044828371E-02
 21
2.65383031325276E-02
 31
0
 12
2.7249436158435E-03
 22
0.051334987747518
 32
0
 13
3.99043870838178E-02
 23
4.97851949590811E-02
 33
0
  0
SOLID
  8
0
 62
8
 10
2.7249436158435E-03
 20
0.051334987747518
 30
0
 11
3.99043870838178E-02
 21
4.97851949590811E-02
 31
0
 12
2.7249436158435E-03
 22
0.051334987747518
 32
0
 13
3.68061001281533E-02
 23
5.90839516897025E-02
 33
0
  0
SOLID
  8
0
 62
8
 10
5.82323057150802E-03
 20
7.30320867856346E-02
 30
0
 11
2.7249436158435E-03
 21
0.051334987747518
 31
0
 12
5.82323057150802E-03
 22
7.30320867856346E-02
 32
0
 13
3.68061001281533E-02
 23
5.90839516897025E-02
 33
0
  0
SOLID
  8
0
 62
8
 10
6.31415392513018E-02
 20
0.127274834380926
 30
0
 11
4.14535305616501E-02
 21
0.136573591111547
 31
0
 12
6.31415392513018E-02
 22
0.127274834380926
 32
0
 13
2.13146653498307E-02
 23
0.125725041592489
 33
0
  0
SOLID
  8
0
 62
8
 10
5.82323057150802E-03
 20
7.30320867856346E-02
 30
0
 11
3.68061001281533E-02
 21
5.90839516897025E-02
 31
0
 12
5.82323057150802E-03
 22
7.30320867856346E-02
 32
0
 13
4.76501044729791E-02
 23
8.85300146700035E-02
 33
0
  0
SOLID
  8
0
 62
8
 10
1.20198044828371E-02
 20
9.78287714006249E-02
 30
0
 11
5.82323057150802E-03
 21
7.30320867856346E-02
 31
0
 12
1.20198044828371E-02
 22
9.78287714006249E-02
 32
0
 13
4.76501044729791E-02
 23
8.85300146700035E-02
 33
0
  0
SOLID
  8
0
 62
8
 10
1.20198044828371E-02
 20
9.78287714006249E-02
 30
0
 11
4.76501044729791E-02
 21
8.85300146700035E-02
 31
0
 12
1.20198044828371E-02
 22
9.78287714006249E-02
 32
0
 13
5.22975349064759E-02
 23
9.00798074584404E-02
 33
0
  0
SOLID
  8
0
 62
8
 10
7.08872566404631E-02
 20
5.75341589012656E-02
 30
0
 11
7.39855435961276E-02
 21
3.42872670747121E-02
 31
0
 12
7.08872566404631E-02
 22
5.75341589012656E-02
 32
0
 13
0.108066700108437
 23
3.27374742862752E-02
 33
0
  0
SOLID
  8
0
 62
8
 10
7.08872566404631E-02
 20
5.75341589012656E-02
 30
0
 11
0.108066700108437
 21
3.27374742862752E-02
 31
0
 12
7.08872566404631E-02
 22
5.75341589012656E-02
 32
0
 13
0.108066700108437
 23
6.52831228434501E-02
 33
0
  0
SOLID
  8
0
 62
8
 10
6.77889696847985E-02
 20
6.83827084203239E-02
 30
0
 11
7.08872566404631E-02
 21
5.75341589012656E-02
 31
0
 12
6.77889696847985E-02
 22
6.83827084203239E-02
 32
0
 13
0.108066700108437
 23
6.52831228434501E-02
 33
0
  0
SOLID
  8
0
 62
8
 10
6.77889696847985E-02
 20
6.83827084203239E-02
 30
0
 11
0.108066700108437
 21
6.52831228434501E-02
 31
0
 12
6.77889696847985E-02
 22
6.83827084203239E-02
 32
0
 13
0.101870126197108
 23
8.38806363046928E-02
 33
0
  0
SOLID
  8
0
 62
8
 10
6.15923957734695E-02
 20
8.23308435162559E-02
 30
0
 11
6.77889696847985E-02
 21
6.83827084203239E-02
 31
0
 12
6.15923957734695E-02
 22
8.23308435162559E-02
 32
0
 13
0.101870126197108
 23
8.38806363046928E-02
 33
0
  0
SOLID
  8
0
 62
8
 10
6.15923957734695E-02
 20
8.23308435162559E-02
 30
0
 11
0.101870126197108
 21
8.38806363046928E-02
 31
0
 12
6.15923957734695E-02
 22
8.23308435162559E-02
 32
0
 13
8.32804044631212E-02
 23
0.108677320919683
 33
0
  0
SOLID
  8
0
 62
8
 10
5.22975349064759E-02
 20
9.00798074584404E-02
 30
0
 11
6.15923957734695E-02
 21
8.23308435162559E-02
 31
0
 12
5.22975349064759E-02
 22
9.00798074584404E-02
 32
0
 13
8.32804044631212E-02
 23
0.108677320919683
 33
0
  0
SOLID
  8
0
 62
8
 10
5.22975349064759E-02
 20
9.00798074584404E-02
 30
0
 11
8.32804044631212E-02
 21
0.108677320919683
 31
0
 12
5.22975349064759E-02
 22
9.00798074584404E-02
 32
0
 13
6.31415392513018E-02
 23
0.127274834380926
 33
0
  0
SOLID
  8
0
 62
8
 10
5.22975349064759E-02
 20
9.00798074584404E-02
 30
0
 11
6.31415392513018E-02
 21
0.127274834380926
 31
0
 12
5.22975349064759E-02
 22
9.00798074584404E-02
 32
0
 13
2.13146653498307E-02
 23
0.125725041592489
 33
0
  0
SOLID
  8
0
 62
8
 10
1.20198044828371E-02
 20
9.78287714006249E-02
 30
0
 11
5.22975349064759E-02
 21
9.00798074584404E-02
 31
0
 12
1.20198044828371E-02
 22
9.78287714006249E-02
 32
0
 13
2.13146653498307E-02
 23
0.125725041592489
 33
0
  0
SOLID
  8
0
 62
8
 10
7.86329740296244E-02
 20
0.210963644956518
 30
0
 11
7.55346870739599E-02
 21
0.214063230533392
 31
0
 12
7.86329740296244E-02
 22
0.210963644956518
 32
0
 13
6.77889696847985E-02
 23
0.22026240168714
 33
0
  0
SOLID
  8
0
 62
8
 10
5.38466783843082E-02
 20
0.421735464183937
 30
0
 11
4.30026740394823E-02
 21
0.427934635337684
 31
0
 12
5.38466783843082E-02
 22
0.421735464183937
 32
0
 13
0.035256956650321
 23
0.417086085818626
 33
0
  0
SOLID
  8
0
 62
8
 10
0.035256956650321
 20
0.417086085818626
 30
0
 11
0.029060382738992
 21
0.407787329088004
 31
0
 12
0.035256956650321
 22
0.417086085818626
 32
0
 13
2.28638088276629E-02
 23
0.395388986780509
 33
0
  0
SOLID
  8
0
 62
8
 10
4.27408709367576E-03
 20
0.313249968993354
 30
0
 11
4.27408709367576E-03
 21
0.300851626685859
 31
0
 12
4.27408709367576E-03
 22
0.313249968993354
 32
0
 13
8.92151752717255E-03
 23
0.28535369880149
 33
0
  0
SOLID
  8
0
 62
8
 10
7.08872566404631E-02
 20
0.398488572357383
 30
0
 11
0.064690682729134
 21
0.413986500241752
 31
0
 12
7.08872566404631E-02
 22
0.398488572357383
 32
0
 13
5.38466783843082E-02
 23
0.421735464183937
 33
0
  0
SOLID
  8
0
 62
8
 10
1.35689479606693E-02
 20
0.365942923800208
 30
0
 11
7.37237404934028E-03
 21
0.35509437428115
 31
0
 12
1.35689479606693E-02
 22
0.365942923800208
 32
0
 13
4.27408709367576E-03
 23
0.338046653608344
 33
0
  0
SOLID
  8
0
 62
8
 10
4.61009609951469E-02
 20
0.178417996399344
 30
0
 11
6.15923957734695E-02
 21
0.159820482938101
 31
0
 12
4.61009609951469E-02
 22
0.178417996399344
 32
0
 13
7.39855435961276E-02
 23
0.166019654091848
 33
0
  0
SOLID
  8
0
 62
8
 10
6.15923957734695E-02
 20
0.367492716588645
 30
0
 11
6.77889696847985E-02
 21
0.382990644473014
 31
0
 12
6.15923957734695E-02
 22
0.367492716588645
 32
0
 13
7.08872566404631E-02
 23
0.398488572357383
 33
0
  0
SOLID
  8
0
 62
8
 10
6.15923957734695E-02
 20
0.259007221398062
 30
0
 11
5.53958218621404E-02
 21
0.274505149282431
 31
0
 12
6.15923957734695E-02
 22
0.259007221398062
 32
0
 13
4.30026740394823E-02
 23
0.288453284378363
 33
0
  0
SOLID
  8
0
 62
8
 10
8.32804044631212E-02
 20
0.187716753129965
 30
0
 11
7.86329740296244E-02
 21
0.210963644956518
 31
0
 12
8.32804044631212E-02
 22
0.187716753129965
 32
0
 13
6.77889696847985E-02
 23
0.22026240168714
 33
0
  0
SOLID
  8
0
 62
8
 10
4.14535305616501E-02
 20
0.184617167553091
 30
0
 11
4.61009609951469E-02
 21
0.178417996399344
 31
0
 12
4.14535305616501E-02
 22
0.184617167553091
 32
0
 13
7.39855435961276E-02
 23
0.166019654091848
 33
0
  0
SOLID
  8
0
 62
8
 10
7.08872566404631E-02
 20
0.398488572357383
 30
0
 11
5.38466783843082E-02
 21
0.421735464183937
 31
0
 12
7.08872566404631E-02
 22
0.398488572357383
 32
0
 13
0.035256956650321
 23
0.417086085818626
 33
0
  0
SOLID
  8
0
 62
8
 10
0.035256956650321
 20
0.417086085818626
 30
0
 11
2.28638088276629E-02
 21
0.395388986780509
 31
0
 12
0.035256956650321
 22
0.417086085818626
 32
0
 13
1.97655218719984E-02
 23
0.37989105889614
 33
0
  0
SOLID
  8
0
 62
8
 10
1.51180914385016E-02
 20
0.241959500725256
 30
0
 11
1.20198044828371E-02
 21
0.226461572840887
 31
0
 12
1.51180914385016E-02
 22
0.241959500725256
 32
0
 13
2.28638088276629E-02
 23
0.201664888225897
 33
0
  0
SOLID
  8
0
 62
8
 10
4.14535305616501E-02
 20
0.184617167553091
 30
0
 11
7.39855435961276E-02
 21
0.166019654091848
 31
0
 12
4.14535305616501E-02
 22
0.184617167553091
 32
0
 13
8.32804044631212E-02
 23
0.187716753129965
 33
0
  0
SOLID
  8
0
 62
8
 10
6.15923957734695E-02
 20
0.259007221398062
 30
0
 11
4.30026740394823E-02
 21
0.288453284378363
 31
0
 12
6.15923957734695E-02
 22
0.259007221398062
 32
0
 13
3.83552436059856E-02
 23
0.294652455532111
 33
0
  0
SOLID
  8
0
 62
8
 10
4.27408709367576E-03
 20
0.313249968993354
 30
0
 11
8.92151752717255E-03
 21
0.28535369880149
 31
0
 12
4.27408709367576E-03
 22
0.313249968993354
 32
0
 13
1.35689479606693E-02
 23
0.271405563705557
 33
0
  0
SOLID
  8
0
 62
8
 10
3.68061001281533E-02
 20
0.331847482454597
 30
0
 11
5.22975349064759E-02
 21
0.351994788704276
 31
0
 12
3.68061001281533E-02
 22
0.331847482454597
 32
0
 13
6.15923957734695E-02
 23
0.367492716588645
 33
0
  0
SOLID
  8
0
 62
8
 10
4.14535305616501E-02
 20
0.184617167553091
 30
0
 11
8.32804044631212E-02
 21
0.187716753129965
 31
0
 12
4.14535305616501E-02
 22
0.184617167553091
 32
0
 13
6.77889696847985E-02
 23
0.22026240168714
 33
0
  0
SOLID
  8
0
 62
8
 10
1.97655218719984E-02
 20
0.37989105889614
 30
0
 11
1.35689479606693E-02
 21
0.365942923800208
 31
0
 12
1.97655218719984E-02
 22
0.37989105889614
 32
0
 13
4.27408709367576E-03
 23
0.338046653608344
 33
0
  0
SOLID
  8
0
 62
8
 10
2.28638088276629E-02
 20
0.201664888225897
 30
0
 11
4.14535305616501E-02
 21
0.184617167553091
 31
0
 12
2.28638088276629E-02
 22
0.201664888225897
 32
0
 13
6.77889696847985E-02
 23
0.22026240168714
 33
0
  0
SOLID
  8
0
 62
8
 10
2.28638088276629E-02
 20
0.201664888225897
 30
0
 11
6.77889696847985E-02
 21
0.22026240168714
 31
0
 12
2.28638088276629E-02
 22
0.201664888225897
 32
0
 13
6.15923957734695E-02
 23
0.234210536783072
 33
0
  0
SOLID
  8
0
 62
8
 10
1.51180914385016E-02
 20
0.241959500725256
 30
0
 11
2.28638088276629E-02
 21
0.201664888225897
 31
0
 12
1.51180914385016E-02
 22
0.241959500725256
 32
0
 13
6.15923957734695E-02
 23
0.234210536783072
 33
0
  0
SOLID
  8
0
 62
8
 10
1.51180914385016E-02
 20
0.241959500725256
 30
0
 11
6.15923957734695E-02
 21
0.234210536783072
 31
0
 12
1.51180914385016E-02
 22
0.241959500725256
 32
0
 13
6.15923957734695E-02
 23
0.259007221398062
 33
0
  0
SOLID
  8
0
 62
8
 10
1.51180914385016E-02
 20
0.257457428609625
 30
0
 11
1.51180914385016E-02
 21
0.241959500725256
 31
0
 12
1.51180914385016E-02
 22
0.257457428609625
 32
0
 13
6.15923957734695E-02
 23
0.259007221398062
 33
0
  0
SOLID
  8
0
 62
8
 10
1.51180914385016E-02
 20
0.257457428609625
 30
0
 11
6.15923957734695E-02
 21
0.259007221398062
 31
0
 12
1.51180914385016E-02
 22
0.257457428609625
 32
0
 13
3.83552436059856E-02
 23
0.294652455532111
 33
0
  0
SOLID
  8
0
 62
8
 10
1.35689479606693E-02
 20
0.271405563705557
 30
0
 11
1.51180914385016E-02
 21
0.257457428609625
 31
0
 12
1.35689479606693E-02
 22
0.271405563705557
 32
0
 13
3.83552436059856E-02
 23
0.294652455532111
 33
0
  0
SOLID
  8
0
 62
8
 10
4.27408709367576E-03
 20
0.313249968993354
 30
0
 11
1.35689479606693E-02
 21
0.271405563705557
 31
0
 12
4.27408709367576E-03
 22
0.313249968993354
 32
0
 13
3.83552436059856E-02
 23
0.294652455532111
 33
0
  0
SOLID
  8
0
 62
8
 10
4.27408709367576E-03
 20
0.313249968993354
 30
0
 11
3.83552436059856E-02
 21
0.294652455532111
 31
0
 12
4.27408709367576E-03
 22
0.313249968993354
 32
0
 13
3.21586696946565E-02
 23
0.317899347358664
 33
0
  0
SOLID
  8
0
 62
8
 10
4.27408709367576E-03
 20
0.338046653608344
 30
0
 11
4.27408709367576E-03
 21
0.313249968993354
 31
0
 12
4.27408709367576E-03
 22
0.338046653608344
 32
0
 13
3.21586696946565E-02
 23
0.317899347358664
 33
0
  0
SOLID
  8
0
 62
8
 10
4.27408709367576E-03
 20
0.338046653608344
 30
0
 11
3.21586696946565E-02
 21
0.317899347358664
 31
0
 12
4.27408709367576E-03
 22
0.338046653608344
 32
0
 13
3.68061001281533E-02
 23
0.331847482454597
 33
0
  0
SOLID
  8
0
 62
8
 10
1.97655218719984E-02
 20
0.37989105889614
 30
0
 11
4.27408709367576E-03
 21
0.338046653608344
 31
0
 12
1.97655218719984E-02
 22
0.37989105889614
 32
0
 13
3.68061001281533E-02
 23
0.331847482454597
 33
0
  0
SOLID
  8
0
 62
8
 10
1.97655218719984E-02
 20
0.37989105889614
 30
0
 11
3.68061001281533E-02
 21
0.331847482454597
 31
0
 12
1.97655218719984E-02
 22
0.37989105889614
 32
0
 13
6.15923957734695E-02
 23
0.367492716588645
 33
0
  0
SOLID
  8
0
 62
8
 10
1.97655218719984E-02
 20
0.37989105889614
 30
0
 11
6.15923957734695E-02
 21
0.367492716588645
 31
0
 12
1.97655218719984E-02
 22
0.37989105889614
 32
0
 13
7.08872566404631E-02
 23
0.398488572357383
 33
0
  0
SOLID
  8
0
 62
8
 10
1.97655218719984E-02
 20
0.37989105889614
 30
0
 11
7.08872566404631E-02
 21
0.398488572357383
 31
0
 12
1.97655218719984E-02
 22
0.37989105889614
 32
0
 13
0.035256956650321
 23
0.417086085818626
 33
0
  0
SOLID
  8
0
 62
8
 10
0.194985341259536
 20
0.129027261462206
 30
0
 11
0.205823425580263
 21
0.135223048327138
 31
0
 12
0.194985341259536
 22
0.129027261462206
 32
0
 13
0.210468318860575
 23
0.147614622057001
 33
0
  0
SOLID
  8
0
 62
8
 10
0.171760874857978
 20
0.136771995043371
 30
0
 11
0.181050661418601
 21
0.130576208178439
 31
0
 12
0.171760874857978
 22
0.136771995043371
 32
0
 13
0.194985341259536
 23
0.129027261462206
 33
0
  0
SOLID
  8
0
 62
8
 10
0.181050661418601
 20
0.180142503097893
 30
0
 11
0.162471088297354
 21
0.169299876084263
 31
0
 12
0.181050661418601
 22
0.180142503097893
 32
0
 13
0.167115981577666
 23
0.1522614622057
 33
0
  0
SOLID
  8
0
 62
8
 10
0.167115981577666
 20
0.1522614622057
 30
0
 11
0.171760874857978
 21
0.136771995043371
 31
0
 12
0.167115981577666
 22
0.1522614622057
 32
0
 13
0.194985341259536
 23
0.129027261462206
 33
0
  0
SOLID
  8
0
 62
8
 10
0.167115981577666
 20
0.1522614622057
 30
0
 11
0.194985341259536
 21
0.129027261462206
 31
0
 12
0.167115981577666
 22
0.1522614622057
 32
0
 13
0.210468318860575
 23
0.147614622057001
 33
0
  0
SOLID
  8
0
 62
8
 10
0.210468318860575
 20
0.147614622057001
 30
0
 11
0.207371723340367
 21
0.170848822800496
 31
0
 12
0.210468318860575
 22
0.147614622057001
 32
0
 13
0.181050661418601
 23
0.180142503097893
 33
0
  0
SOLID
  8
0
 62
8
 10
0.167115981577666
 20
0.1522614622057
 30
0
 11
0.210468318860575
 21
0.147614622057001
 31
0
 12
0.167115981577666
 22
0.1522614622057
 32
0
 13
0.181050661418601
 23
0.180142503097893
 33
0
  0
SOLID
  8
0
 62
8
 10
0.255368953903587
 20
0.30405824039653
 30
0
 11
0.249175762863172
 21
0.30405824039653
 31
0
 12
0.255368953903587
 22
0.30405824039653
 32
0
 13
0.23678938078234
 23
0.294764560099133
 33
0
  0
SOLID
  8
0
 62
8
 10
0.269303633744522
 20
0.234355638166047
 30
0
 11
0.27240022926473
 21
0.223513011152416
 31
0
 12
0.269303633744522
 22
0.234355638166047
 32
0
 13
0.289431504625872
 23
0.22041511771995
 33
0
  0
SOLID
  8
0
 62
8
 10
0.269303633744522
 20
0.234355638166047
 30
0
 11
0.289431504625872
 21
0.22041511771995
 31
0
 12
0.269303633744522
 22
0.234355638166047
 32
0
 13
0.290979802385976
 23
0.246747211895911
 33
0
  0
SOLID
  8
0
 62
8
 10
0.255368953903587
 20
0.30405824039653
 30
0
 11
0.23678938078234
 21
0.294764560099133
 31
0
 12
0.255368953903587
 22
0.30405824039653
 32
0
 13
0.23678938078234
 23
0.283921933085502
 33
0
  0
SOLID
  8
0
 62
8
 10
0.260013847183899
 20
0.248296158612144
 30
0
 11
0.269303633744522
 21
0.234355638166047
 31
0
 12
0.260013847183899
 22
0.248296158612144
 32
0
 13
0.290979802385976
 23
0.246747211895911
 33
0
  0
SOLID
  8
0
 62
8
 10
0.260013847183899
 20
0.248296158612144
 30
0
 11
0.290979802385976
 21
0.246747211895911
 31
0
 12
0.260013847183899
 22
0.248296158612144
 32
0
 13
0.289431504625872
 23
0.266883519206939
 33
0
  0
SOLID
  8
0
 62
8
 10
0.289431504625872
 20
0.266883519206939
 30
0
 11
0.283238313585457
 21
0.280824039653036
 31
0
 12
0.289431504625872
 22
0.266883519206939
 32
0
 13
0.270851931504626
 23
0.297862453531599
 33
0
  0
SOLID
  8
0
 62
8
 10
0.270851931504626
 20
0.297862453531599
 30
0
 11
0.255368953903587
 21
0.30405824039653
 31
0
 12
0.270851931504626
 22
0.297862453531599
 32
0
 13
0.23678938078234
 23
0.283921933085502
 33
0
  0
SOLID
  8
0
 62
8
 10
0.253820656143483
 20
0.257589838909542
 30
0
 11
0.260013847183899
 21
0.248296158612144
 31
0
 12
0.253820656143483
 22
0.257589838909542
 32
0
 13
0.289431504625872
 23
0.266883519206939
 33
0
  0
SOLID
  8
0
 62
8
 10
0.253820656143483
 20
0.257589838909542
 30
0
 11
0.289431504625872
 21
0.266883519206939
 31
0
 12
0.253820656143483
 22
0.257589838909542
 32
0
 13
0.270851931504626
 23
0.297862453531599
 33
0
  0
SOLID
  8
0
 62
8
 10
0.253820656143483
 20
0.257589838909542
 30
0
 11
0.270851931504626
 21
0.297862453531599
 31
0
 12
0.253820656143483
 22
0.257589838909542
 32
0
 13
0.23678938078234
 23
0.283921933085502
 33
0
  0
SOLID
  8
0
 62
8
 10
0.315651926137961
 20
0.144322555053732
 30
0
 11
0.323397643527122
 21
0.136573591111547
 31
0
 12
0.315651926137961
 22
0.144322555053732
 32
0
 13
0.328045073960619
 23
0.145872347842169
 33
0
  0
SOLID
  8
0
 62
8
 10
0.258333617458167
 20
0.161370275726538
 30
0
 11
0.262981047891664
 21
0.148971933419043
 31
0
 12
0.258333617458167
 22
0.161370275726538
 32
0
 13
0.276923339192154
 23
0.152071518995916
 33
0
  0
SOLID
  8
0
 62
8
 10
0.304807921793135
 20
0.148971933419043
 30
0
 11
0.315651926137961
 21
0.144322555053732
 31
0
 12
0.304807921793135
 22
0.148971933419043
 32
0
 13
0.328045073960619
 23
0.145872347842169
 33
0
  0
SOLID
  8
0
 62
8
 10
0.328045073960619
 20
0.145872347842169
 30
0
 11
0.328045073960619
 21
0.164469861303412
 31
0
 12
0.328045073960619
 22
0.145872347842169
 32
0
 13
0.324946787004954
 23
0.169119239668722
 33
0
  0
SOLID
  8
0
 62
8
 10
0.283119913103483
 20
0.192366131495276
 30
0
 11
0.267628478325161
 21
0.187716753129965
 31
0
 12
0.283119913103483
 22
0.192366131495276
 32
0
 13
0.261431904413831
 23
0.179967789187781
 33
0
  0
SOLID
  8
0
 62
8
 10
0.309455352226632
 20
0.189266545918402
 30
0
 11
0.295513060926141
 21
0.193915924283713
 31
0
 12
0.309455352226632
 22
0.189266545918402
 32
0
 13
0.283119913103483
 23
0.192366131495276
 33
0
  0
SOLID
  8
0
 62
8
 10
0.304807921793135
 20
0.148971933419043
 30
0
 11
0.328045073960619
 21
0.145872347842169
 31
0
 12
0.304807921793135
 22
0.148971933419043
 32
0
 13
0.324946787004954
 23
0.169119239668722
 33
0
  0
SOLID
  8
0
 62
8
 10
0.261431904413831
 20
0.179967789187781
 30
0
 11
0.258333617458167
 21
0.161370275726538
 31
0
 12
0.261431904413831
 22
0.179967789187781
 32
0
 13
0.276923339192154
 23
0.152071518995916
 33
0
  0
SOLID
  8
0
 62
8
 10
0.292414773970477
 20
0.152071518995916
 30
0
 11
0.304807921793135
 21
0.148971933419043
 31
0
 12
0.292414773970477
 22
0.152071518995916
 32
0
 13
0.324946787004954
 23
0.169119239668722
 33
0
  0
SOLID
  8
0
 62
8
 10
0.283119913103483
 20
0.192366131495276
 30
0
 11
0.261431904413831
 21
0.179967789187781
 31
0
 12
0.283119913103483
 22
0.192366131495276
 32
0
 13
0.276923339192154
 23
0.152071518995916
 33
0
  0
SOLID
  8
0
 62
8
 10
0.292414773970477
 20
0.152071518995916
 30
0
 11
0.324946787004954
 21
0.169119239668722
 31
0
 12
0.292414773970477
 22
0.152071518995916
 32
0
 13
0.309455352226632
 23
0.189266545918402
 33
0
  0
SOLID
  8
0
 62
8
 10
0.292414773970477
 20
0.152071518995916
 30
0
 11
0.309455352226632
 21
0.189266545918402
 31
0
 12
0.292414773970477
 22
0.152071518995916
 32
0
 13
0.283119913103483
 23
0.192366131495276
 33
0
  0
SOLID
  8
0
 62
8
 10
0.292414773970477
 20
0.152071518995916
 30
0
 11
0.283119913103483
 21
0.192366131495276
 31
0
 12
0.292414773970477
 22
0.152071518995916
 32
0
 13
0.276923339192154
 23
0.152071518995916
 33
0
  0
SOLID
  8
0
 62
8
 10
0.201015308778373
 20
1.10403752481588E-02
 30
0
 11
0.210310169645367
 21
1.41399608250326E-02
 31
0
 12
0.201015308778373
 22
1.10403752481588E-02
 32
0
 13
0.216506743556696
 23
1.87893391903432E-02
 33
0
  0
SOLID
  8
0
 62
8
 10
0.348183939172438
 20
1.10403752481588E-02
 30
0
 11
0.363675373950761
 21
1.10403752481588E-02
 31
0
 12
0.348183939172438
 22
1.10403752481588E-02
 32
0
 13
0.36987194786209
 23
1.87893391903432E-02
 33
0
  0
SOLID
  8
0
 62
8
 10
0.267628478325161
 20
2.03391319787801E-02
 30
0
 11
0.286218200059148
 21
1.72395464019063E-02
 31
0
 12
0.267628478325161
 22
2.03391319787801E-02
 32
0
 13
0.295513060926141
 23
1.87893391903432E-02
 33
0
  0
SOLID
  8
0
 62
8
 10
0.196367878344876
 20
3.89366454400229E-02
 30
0
 11
0.185523874000051
 21
1.72395464019063E-02
 31
0
 12
0.196367878344876
 22
3.89366454400229E-02
 32
0
 13
0.201015308778373
 23
1.10403752481588E-02
 33
0
  0
SOLID
  8
0
 62
8
 10
0.196367878344876
 20
3.89366454400229E-02
 30
0
 11
0.201015308778373
 21
1.10403752481588E-02
 31
0
 12
0.196367878344876
 22
3.89366454400229E-02
 32
0
 13
0.216506743556696
 23
1.87893391903432E-02
 33
0
  0
SOLID
  8
0
 62
8
 10
0.295513060926141
 20
1.87893391903432E-02
 30
0
 11
0.311004495704464
 21
2.03391319787801E-02
 31
0
 12
0.295513060926141
 22
1.87893391903432E-02
 32
0
 13
0.324946787004954
 23
2.34387175556539E-02
 33
0
  0
SOLID
  8
0
 62
8
 10
0.348183939172438
 20
1.10403752481588E-02
 30
0
 11
0.36987194786209
 21
1.87893391903432E-02
 31
0
 12
0.348183939172438
 22
1.10403752481588E-02
 32
0
 13
0.365224517428593
 23
3.58370598631491E-02
 33
0
  0
SOLID
  8
0
 62
8
 10
0.208761026167535
 20
4.82354021706443E-02
 30
0
 11
0.196367878344876
 21
3.89366454400229E-02
 31
0
 12
0.208761026167535
 22
4.82354021706443E-02
 32
0
 13
0.216506743556696
 23
1.87893391903432E-02
 33
0
  0
SOLID
  8
0
 62
8
 10
0.208761026167535
 20
4.82354021706443E-02
 30
0
 11
0.216506743556696
 21
1.87893391903432E-02
 31
0
 12
0.208761026167535
 22
4.82354021706443E-02
 32
0
 13
0.228899891379354
 23
2.34387175556539E-02
 33
0
  0
SOLID
  8
0
 62
8
 10
0.225801604423689
 20
5.13349877475181E-02
 30
0
 11
0.208761026167535
 21
4.82354021706443E-02
 31
0
 12
0.225801604423689
 22
5.13349877475181E-02
 32
0
 13
0.228899891379354
 23
2.34387175556539E-02
 33
0
  0
SOLID
  8
0
 62
8
 10
0.244391326157677
 20
5.13349877475181E-02
 30
0
 11
0.225801604423689
 21
5.13349877475181E-02
 31
0
 12
0.244391326157677
 22
5.13349877475181E-02
 32
0
 13
0.228899891379354
 23
2.34387175556539E-02
 33
0
  0
SOLID
  8
0
 62
8
 10
0.244391326157677
 20
5.13349877475181E-02
 30
0
 11
0.228899891379354
 21
2.34387175556539E-02
 31
0
 12
0.244391326157677
 22
5.13349877475181E-02
 32
0
 13
0.242842182679844
 23
2.03391319787801E-02
 33
0
  0
SOLID
  8
0
 62
8
 10
0.244391326157677
 20
5.13349877475181E-02
 30
0
 11
0.242842182679844
 21
2.03391319787801E-02
 31
0
 12
0.244391326157677
 22
5.13349877475181E-02
 32
0
 13
0.261431904413831
 23
2.03391319787801E-02
 33
0
  0
SOLID
  8
0
 62
8
 10
0.269177621802993
 20
5.44345733243919E-02
 30
0
 11
0.244391326157677
 21
5.13349877475181E-02
 31
0
 12
0.269177621802993
 22
5.44345733243919E-02
 32
0
 13
0.261431904413831
 23
2.03391319787801E-02
 33
0
  0
SOLID
  8
0
 62
8
 10
0.269177621802993
 20
5.44345733243919E-02
 30
0
 11
0.261431904413831
 21
2.03391319787801E-02
 31
0
 12
0.269177621802993
 22
5.44345733243919E-02
 32
0
 13
0.267628478325161
 23
2.03391319787801E-02
 33
0
  0
SOLID
  8
0
 62
8
 10
0.332692504394116
 20
2.03391319787801E-02
 30
0
 11
0.348183939172438
 21
1.10403752481588E-02
 31
0
 12
0.332692504394116
 22
2.03391319787801E-02
 32
0
 13
0.365224517428593
 23
3.58370598631491E-02
 33
0
  0
SOLID
  8
0
 62
8
 10
0.332692504394116
 20
2.03391319787801E-02
 30
0
 11
0.365224517428593
 21
3.58370598631491E-02
 31
0
 12
0.332692504394116
 22
2.03391319787801E-02
 32
0
 13
0.348183939172438
 23
0.052884780535955
 33
0
  0
SOLID
  8
0
 62
8
 10
0.332692504394116
 20
2.03391319787801E-02
 30
0
 11
0.348183939172438
 21
0.052884780535955
 31
0
 12
0.332692504394116
 22
2.03391319787801E-02
 32
0
 13
0.318750213093625
 23
5.44345733243919E-02
 33
0
  0
SOLID
  8
0
 62
8
 10
0.324946787004954
 20
2.34387175556539E-02
 30
0
 11
0.332692504394116
 21
2.03391319787801E-02
 31
0
 12
0.324946787004954
 22
2.34387175556539E-02
 32
0
 13
0.318750213093625
 23
5.44345733243919E-02
 33
0
  0
SOLID
  8
0
 62
8
 10
0.295513060926141
 20
1.87893391903432E-02
 30
0
 11
0.324946787004954
 21
2.34387175556539E-02
 31
0
 12
0.295513060926141
 22
1.87893391903432E-02
 32
0
 13
0.318750213093625
 23
5.44345733243919E-02
 33
0
  0
SOLID
  8
0
 62
8
 10
0.295513060926141
 20
1.87893391903432E-02
 30
0
 11
0.318750213093625
 21
5.44345733243919E-02
 31
0
 12
0.295513060926141
 22
1.87893391903432E-02
 32
0
 13
0.295513060926141
 23
5.44345733243919E-02
 33
0
  0
SOLID
  8
0
 62
8
 10
0.267628478325161
 20
2.03391319787801E-02
 30
0
 11
0.295513060926141
 21
1.87893391903432E-02
 31
0
 12
0.267628478325161
 22
2.03391319787801E-02
 32
0
 13
0.295513060926141
 23
5.44345733243919E-02
 33
0
  0
SOLID
  8
0
 62
8
 10
0.269177621802993
 20
5.44345733243919E-02
 30
0
 11
0.267628478325161
 21
2.03391319787801E-02
 31
0
 12
0.269177621802993
 22
5.44345733243919E-02
 32
0
 13
0.295513060926141
 23
5.44345733243919E-02
 33
0
  0
SOLID
  8
0
 62
8
 10
0.238337678542444
 20
0.186338289962825
 30
0
 11
0.247627465103068
 21
0.19408302354399
 31
0
 12
0.238337678542444
 22
0.186338289962825
 32
0
 13
0.241434274062652
 23
0.214219330855019
 33
0
  0
SOLID
  8
0
 62
8
 10
0.218209807661094
 20
0.190985130111524
 30
0
 11
0.238337678542444
 21
0.186338289962825
 31
0
 12
0.218209807661094
 22
0.190985130111524
 32
0
 13
0.241434274062652
 23
0.214219330855019
 33
0
  0
SOLID
  8
0
 62
8
 10
0.32039745982795
 20
0.274628252788104
 30
0
 11
0.334332139668885
 21
0.279275092936803
 31
0
 12
0.32039745982795
 22
0.274628252788104
 32
0
 13
0.334332139668885
 23
0.307156133828996
 33
0
  0
SOLID
  8
0
 62
8
 10
0.3002695889466
 20
0.2932156133829
 30
0
 11
0.32039745982795
 21
0.274628252788104
 31
0
 12
0.3002695889466
 22
0.2932156133829
 32
0
 13
0.334332139668885
 23
0.307156133828996
 33
0
  0
SOLID
  8
0
 62
8
 10
0.303366184466807
 20
9.49504337050806E-02
 30
0
 11
0.308011077747119
 21
0.116635687732342
 31
0
 12
0.303366184466807
 22
9.49504337050806E-02
 32
0
 13
0.287883206865768
 23
0.130576208178439
 33
0
  0
SOLID
  8
0
 62
8
 10
0.16
 20
0
 30
0
 11
0.16866427933777
 21
1.75030978934325E-02
 31
0
 12
0.16
 22
0
 32
0
 13
0.171760874857978
 23
3.91883519206939E-02
 33
0
  0
SOLID
  8
0
 62
8
 10
0.3002695889466
 20
0.2932156133829
 30
0
 11
0.334332139668885
 21
0.307156133828996
 31
0
 12
0.3002695889466
 22
0.2932156133829
 32
0
 13
0.321945757588054
 23
0.328841387856258
 33
0
  0
SOLID
  8
0
 62
8
 10
0.290979802385976
 20
0.31954770755886
 30
0
 11
0.3002695889466
 21
0.2932156133829
 31
0
 12
0.290979802385976
 22
0.31954770755886
 32
0
 13
0.321945757588054
 23
0.328841387856258
 33
0
  0
SOLID
  8
0
 62
8
 10
0.290979802385976
 20
0.31954770755886
 30
0
 11
0.321945757588054
 21
0.328841387856258
 31
0
 12
0.290979802385976
 22
0.31954770755886
 32
0
 13
0.311107673267327
 23
0.350526641883519
 33
0
  0
SOLID
  8
0
 62
8
 10
0.278593420305145
 20
0.341232961586121
 30
0
 11
0.290979802385976
 21
0.31954770755886
 31
0
 12
0.278593420305145
 22
0.341232961586121
 32
0
 13
0.311107673267327
 23
0.350526641883519
 33
0
  0
SOLID
  8
0
 62
8
 10
0.278593420305145
 20
0.341232961586121
 30
0
 11
0.311107673267327
 21
0.350526641883519
 31
0
 12
0.278593420305145
 22
0.341232961586121
 32
0
 13
0.301817886706703
 23
0.372211895910781
 33
0
  0
SOLID
  8
0
 62
8
 10
0.269303633744522
 20
0.350526641883519
 30
0
 11
0.278593420305145
 21
0.341232961586121
 31
0
 12
0.269303633744522
 22
0.350526641883519
 32
0
 13
0.301817886706703
 23
0.372211895910781
 33
0
  0
SOLID
  8
0
 62
8
 10
0.269303633744522
 20
0.350526641883519
 30
0
 11
0.301817886706703
 21
0.372211895910781
 31
0
 12
0.269303633744522
 22
0.350526641883519
 32
0
 13
0.278593420305145
 23
0.389250309789343
 33
0
  0
SOLID
  8
0
 62
8
 10
0.224402998701509
 20
8.56567534076828E-02
 30
0
 11
0.238337678542444
 21
8.56567534076828E-02
 31
0
 12
0.224402998701509
 22
8.56567534076828E-02
 32
0
 13
0.266207038224314
 23
9.03035935563817E-02
 33
0
  0
SOLID
  8
0
 62
8
 10
0.250724060623275
 20
0.356722428748451
 30
0
 11
0.269303633744522
 21
0.350526641883519
 31
0
 12
0.250724060623275
 22
0.356722428748451
 32
0
 13
0.278593420305145
 23
0.389250309789343
 33
0
  0
SOLID
  8
0
 62
8
 10
0.250724060623275
 20
0.356722428748451
 30
0
 11
0.278593420305145
 21
0.389250309789343
 31
0
 12
0.250724060623275
 22
0.356722428748451
 32
0
 13
0.242982571822756
 23
0.386152416356877
 33
0
  0
SOLID
  8
0
 62
8
 10
0.238337678542444
 20
0.352075588599752
 30
0
 11
0.250724060623275
 21
0.356722428748451
 31
0
 12
0.238337678542444
 22
0.352075588599752
 32
0
 13
0.242982571822756
 23
0.386152416356877
 33
0
  0
SOLID
  8
0
 62
8
 10
0.238337678542444
 20
0.352075588599752
 30
0
 11
0.242982571822756
 21
0.386152416356877
 31
0
 12
0.238337678542444
 22
0.352075588599752
 32
0
 13
0.212016616620678
 23
0.364467162329616
 33
0
  0
SOLID
  8
0
 62
8
 10
0.219758105421198
 20
0.331939281288724
 30
0
 11
0.238337678542444
 21
0.352075588599752
 31
0
 12
0.219758105421198
 22
0.331939281288724
 32
0
 13
0.212016616620678
 23
0.364467162329616
 33
0
  0
SOLID
  8
0
 62
8
 10
0.219758105421198
 20
0.331939281288724
 30
0
 11
0.212016616620678
 21
0.364467162329616
 31
0
 12
0.219758105421198
 22
0.331939281288724
 32
0
 13
0.184147256938809
 23
0.330390334572491
 33
0
  0
SOLID
  8
0
 62
8
 10
0.210468318860575
 20
0.31954770755886
 30
0
 11
0.219758105421198
 21
0.331939281288724
 31
0
 12
0.210468318860575
 22
0.31954770755886
 32
0
 13
0.184147256938809
 23
0.330390334572491
 33
0
  0
SOLID
  8
0
 62
8
 10
0.198081936779743
 20
0.294764560099133
 30
0
 11
0.210468318860575
 21
0.31954770755886
 31
0
 12
0.198081936779743
 22
0.294764560099133
 32
0
 13
0.184147256938809
 23
0.330390334572491
 33
0
  0
SOLID
  8
0
 62
8
 10
0.198081936779743
 20
0.294764560099133
 30
0
 11
0.184147256938809
 21
0.330390334572491
 31
0
 12
0.198081936779743
 22
0.294764560099133
 32
0
 13
0.171760874857978
 23
0.296313506815366
 33
0
  0
SOLID
  8
0
 62
8
 10
0.191888745739328
 20
0.27772614622057
 30
0
 11
0.198081936779743
 21
0.294764560099133
 31
0
 12
0.191888745739328
 22
0.27772614622057
 32
0
 13
0.171760874857978
 23
0.296313506815366
 33
0
  0
SOLID
  8
0
 62
8
 10
0.191888745739328
 20
0.27772614622057
 30
0
 11
0.171760874857978
 21
0.296313506815366
 31
0
 12
0.191888745739328
 22
0.27772614622057
 32
0
 13
0.159374492777146
 23
0.263785625774473
 33
0
  0
SOLID
  8
0
 62
8
 10
0.201178532299951
 20
0.252942998760843
 30
0
 11
0.191888745739328
 21
0.27772614622057
 31
0
 12
0.201178532299951
 22
0.252942998760843
 32
0
 13
0.159374492777146
 23
0.263785625774473
 33
0
  0
SOLID
  8
0
 62
8
 10
0.137698324135692
 20
0.037639405204461
 30
0
 11
0.12
 21
0
 31
0
 12
0.137698324135692
 22
0.037639405204461
 32
0
 13
0.16
 23
0
 33
0
  0
SOLID
  8
0
 62
8
 10
0.137698324135692
 20
0.037639405204461
 30
0
 11
0.16
 21
0
 31
0
 12
0.137698324135692
 22
0.037639405204461
 32
0
 13
0.171760874857978
 23
3.91883519206939E-02
 33
0
  0
SOLID
  8
0
 62
8
 10
0.19653363901964
 20
0.215768277571252
 30
0
 11
0.218209807661094
 21
0.190985130111524
 31
0
 12
0.19653363901964
 22
0.215768277571252
 32
0
 13
0.241434274062652
 23
0.214219330855019
 33
0
  0
SOLID
  8
0
 62
8
 10
0.19653363901964
 20
0.215768277571252
 30
0
 11
0.241434274062652
 21
0.214219330855019
 31
0
 12
0.19653363901964
 22
0.215768277571252
 32
0
 13
0.222854700941406
 23
0.23590458488228
 33
0
  0
SOLID
  8
0
 62
8
 10
0.187243852459016
 20
0.226610904584882
 30
0
 11
0.19653363901964
 21
0.215768277571252
 31
0
 12
0.187243852459016
 22
0.226610904584882
 32
0
 13
0.222854700941406
 23
0.23590458488228
 33
0
  0
SOLID
  8
0
 62
8
 10
0.187243852459016
 20
0.226610904584882
 30
0
 11
0.222854700941406
 21
0.23590458488228
 31
0
 12
0.187243852459016
 22
0.226610904584882
 32
0
 13
0.201178532299951
 23
0.252942998760843
 33
0
  0
SOLID
  8
0
 62
8
 10
0.174857470378185
 20
0.232806691449814
 30
0
 11
0.187243852459016
 21
0.226610904584882
 31
0
 12
0.174857470378185
 22
0.232806691449814
 32
0
 13
0.201178532299951
 23
0.252942998760843
 33
0
  0
SOLID
  8
0
 62
8
 10
0.174857470378185
 20
0.232806691449814
 30
0
 11
0.201178532299951
 21
0.252942998760843
 31
0
 12
0.174857470378185
 22
0.232806691449814
 32
0
 13
0.159374492777146
 23
0.263785625774473
 33
0
  0
SOLID
  8
0
 62
8
 10
0.174857470378185
 20
0.232806691449814
 30
0
 11
0.159374492777146
 21
0.263785625774473
 31
0
 12
0.174857470378185
 22
0.232806691449814
 32
0
 13
0.136150026375588
 23
0.239002478314746
 33
0
  0
SOLID
  8
0
 62
8
 10
0.154729599496835
 20
0.223513011152416
 30
0
 11
0.174857470378185
 21
0.232806691449814
 31
0
 12
0.154729599496835
 22
0.223513011152416
 32
0
 13
0.136150026375588
 23
0.239002478314746
 33
0
  0
SOLID
  8
0
 62
8
 10
0.154729599496835
 20
0.223513011152416
 30
0
 11
0.136150026375588
 21
0.239002478314746
 31
0
 12
0.154729599496835
 22
0.223513011152416
 32
0
 13
0.117570453254342
 23
0.217317224287485
 33
0
  0
SOLID
  8
0
 62
8
 10
0.148536408456419
 20
0.197180916976456
 30
0
 11
0.154729599496835
 21
0.223513011152416
 31
0
 12
0.148536408456419
 22
0.197180916976456
 32
0
 13
0.117570453254342
 23
0.217317224287485
 33
0
  0
SOLID
  8
0
 62
8
 10
0.266207038224314
 20
9.03035935563817E-02
 30
0
 11
0.303366184466807
 21
9.49504337050806E-02
 31
0
 12
0.266207038224314
 22
9.03035935563817E-02
 32
0
 13
0.287883206865768
 23
0.130576208178439
 33
0
  0
SOLID
  8
0
 62
8
 10
0.266207038224314
 20
9.03035935563817E-02
 30
0
 11
0.287883206865768
 21
0.130576208178439
 31
0
 12
0.266207038224314
 22
9.03035935563817E-02
 32
0
 13
0.263110442704106
 23
0.121282527881041
 33
0
  0
SOLID
  8
0
 62
8
 10
0.266207038224314
 20
9.03035935563817E-02
 30
0
 11
0.263110442704106
 21
0.121282527881041
 31
0
 12
0.266207038224314
 22
9.03035935563817E-02
 32
0
 13
0.238337678542444
 23
0.115086741016109
 33
0
  0
SOLID
  8
0
 62
8
 10
0.224402998701509
 20
8.56567534076828E-02
 30
0
 11
0.266207038224314
 21
9.03035935563817E-02
 31
0
 12
0.224402998701509
 22
8.56567534076828E-02
 32
0
 13
0.238337678542444
 23
0.115086741016109
 33
0
  0
SOLID
  8
0
 62
8
 10
0.224402998701509
 20
8.56567534076828E-02
 30
0
 11
0.238337678542444
 21
0.115086741016109
 31
0
 12
0.224402998701509
 22
8.56567534076828E-02
 32
0
 13
0.207371723340367
 23
0.108890954151177
 33
0
  0
SOLID
  8
0
 62
8
 10
0.19653363901964
 20
0.076363073110285
 30
0
 11
0.224402998701509
 21
8.56567534076828E-02
 31
0
 12
0.19653363901964
 22
0.076363073110285
 32
0
 13
0.207371723340367
 23
0.108890954151177
 33
0
  0
SOLID
  8
0
 62
8
 10
0.19653363901964
 20
0.076363073110285
 30
0
 11
0.207371723340367
 21
0.108890954151177
 31
0
 12
0.19653363901964
 22
0.076363073110285
 32
0
 13
0.187243852459016
 23
9.03035935563817E-02
 33
0
  0
SOLID
  8
0
 62
8
 10
0.181050661418601
 20
5.46778190830235E-02
 30
0
 11
0.19653363901964
 21
0.076363073110285
 31
0
 12
0.181050661418601
 22
5.46778190830235E-02
 32
0
 13
0.187243852459016
 23
9.03035935563817E-02
 33
0
  0
SOLID
  8
0
 62
8
 10
0.148536408456419
 20
0.197180916976456
 30
0
 11
0.117570453254342
 21
0.217317224287485
 31
0
 12
0.148536408456419
 22
0.197180916976456
 32
0
 13
0.105184071173511
 23
0.181691449814126
 33
0
  0
SOLID
  8
0
 62
8
 10
0.133053430855381
 20
0.163104089219331
 30
0
 11
0.148536408456419
 21
0.197180916976456
 31
0
 12
0.133053430855381
 22
0.163104089219331
 32
0
 13
0.105184071173511
 23
0.181691449814126
 33
0
  0
SOLID
  8
0
 62
8
 10
0.133053430855381
 20
0.163104089219331
 30
0
 11
0.105184071173511
 21
0.181691449814126
 31
0
 12
0.133053430855381
 22
0.163104089219331
 32
0
 13
0.100539177893199
 23
0.147614622057001
 33
0
  0
SOLID
  8
0
 62
8
 10
0.131505133095277
 20
0.142967781908302
 30
0
 11
0.133053430855381
 21
0.163104089219331
 31
0
 12
0.131505133095277
 22
0.142967781908302
 32
0
 13
0.100539177893199
 23
0.147614622057001
 33
0
  0
SOLID
  8
0
 62
8
 10
0.131505133095277
 20
0.142967781908302
 30
0
 11
0.100539177893199
 21
0.147614622057001
 31
0
 12
0.131505133095277
 22
0.142967781908302
 32
0
 13
0.109828964453822
 23
0.116635687732342
 33
0
  0
SOLID
  8
0
 62
8
 10
0.145439812936212
 20
0.119733581164808
 30
0
 11
0.131505133095277
 21
0.142967781908302
 31
0
 12
0.145439812936212
 22
0.119733581164808
 32
0
 13
0.109828964453822
 23
0.116635687732342
 33
0
  0
SOLID
  8
0
 62
8
 10
0.145439812936212
 20
0.119733581164808
 30
0
 11
0.109828964453822
 21
0.116635687732342
 31
0
 12
0.145439812936212
 22
0.119733581164808
 32
0
 13
0.122215346534653
 23
9.64993804213135E-02
 33
0
  0
SOLID
  8
0
 62
8
 10
0.157826195017043
 20
9.95972738537794E-02
 30
0
 11
0.145439812936212
 21
0.119733581164808
 31
0
 12
0.157826195017043
 22
9.95972738537794E-02
 32
0
 13
0.122215346534653
 23
9.64993804213135E-02
 33
0
  0
SOLID
  8
0
 62
8
 10
0.157826195017043
 20
9.95972738537794E-02
 30
0
 11
0.122215346534653
 21
9.64993804213135E-02
 31
0
 12
0.157826195017043
 22
9.95972738537794E-02
 32
0
 13
0.134601728615484
 23
7.01672862453532E-02
 33
0
  0
SOLID
  8
0
 62
8
 10
0.137698324135692
 20
0.037639405204461
 30
0
 11
0.171760874857978
 21
3.91883519206939E-02
 31
0
 12
0.137698324135692
 22
0.037639405204461
 32
0
 13
0.181050661418601
 23
5.46778190830235E-02
 33
0
  0
SOLID
  8
0
 62
8
 10
0.134601728615484
 20
7.01672862453532E-02
 30
0
 11
0.137698324135692
 21
0.037639405204461
 31
0
 12
0.134601728615484
 22
7.01672862453532E-02
 32
0
 13
0.181050661418601
 23
5.46778190830235E-02
 33
0
  0
SOLID
  8
0
 62
8
 10
0.181050661418601
 20
5.46778190830235E-02
 30
0
 11
0.187243852459016
 21
9.03035935563817E-02
 31
0
 12
0.181050661418601
 22
5.46778190830235E-02
 32
0
 13
0.157826195017043
 23
9.95972738537794E-02
 33
0
  0
SOLID
  8
0
 62
8
 10
0.134601728615484
 20
7.01672862453532E-02
 30
0
 11
0.181050661418601
 21
5.46778190830235E-02
 31
0
 12
0.134601728615484
 22
7.01672862453532E-02
 32
0
 13
0.157826195017043
 23
9.95972738537794E-02
 33
0
  0
SOLID
  8
0
 62
8
 10
0.179327300088722
 20
0.410886914664878
 30
0
 11
0.183974730522218
 21
0.404687743511131
 31
0
 12
0.179327300088722
 22
0.410886914664878
 32
0
 13
0.194818734867044
 23
0.404687743511131
 33
0
  0
SOLID
  8
0
 62
8
 10
0.194818734867044
 20
0.454281112741111
 30
0
 11
0.187073017477883
 21
0.451181527164238
 31
0
 12
0.194818734867044
 22
0.454281112741111
 32
0
 13
0.177778156610889
 23
0.441882770433616
 33
0
  0
SOLID
  8
0
 62
8
 10
0.224252460945857
 20
0.413986500241752
 30
0
 11
0.235096465290683
 21
0.417086085818626
 31
0
 12
0.224252460945857
 22
0.413986500241752
 32
0
 13
0.241293039202012
 23
0.429484428126121
 33
0
  0
SOLID
  8
0
 62
8
 10
0.179327300088722
 20
0.410886914664878
 30
0
 11
0.194818734867044
 21
0.404687743511131
 31
0
 12
0.179327300088722
 22
0.410886914664878
 32
0
 13
0.208761026167535
 23
0.410886914664878
 33
0
  0
SOLID
  8
0
 62
8
 10
0.177778156610889
 20
0.441882770433616
 30
0
 11
0.174679869655225
 21
0.429484428126121
 31
0
 12
0.177778156610889
 22
0.441882770433616
 32
0
 13
0.179327300088722
 23
0.410886914664878
 33
0
  0
SOLID
  8
0
 62
8
 10
0.208761026167535
 20
0.452731319952675
 30
0
 11
0.194818734867044
 21
0.454281112741111
 31
0
 12
0.208761026167535
 22
0.452731319952675
 32
0
 13
0.177778156610889
 23
0.441882770433616
 33
0
  0
SOLID
  8
0
 62
8
 10
0.224252460945857
 20
0.413986500241752
 30
0
 11
0.241293039202012
 21
0.429484428126121
 31
0
 12
0.224252460945857
 22
0.413986500241752
 32
0
 13
0.242842182679844
 23
0.443432563222053
 33
0
  0
SOLID
  8
0
 62
8
 10
0.224252460945857
 20
0.413986500241752
 30
0
 11
0.242842182679844
 21
0.443432563222053
 31
0
 12
0.224252460945857
 22
0.413986500241752
 32
0
 13
0.208761026167535
 23
0.452731319952675
 33
0
  0
SOLID
  8
0
 62
8
 10
0.208761026167535
 20
0.410886914664878
 30
0
 11
0.224252460945857
 21
0.413986500241752
 31
0
 12
0.208761026167535
 22
0.410886914664878
 32
0
 13
0.208761026167535
 23
0.452731319952675
 33
0
  0
SOLID
  8
0
 62
8
 10
0.208761026167535
 20
0.410886914664878
 30
0
 11
0.208761026167535
 21
0.452731319952675
 31
0
 12
0.208761026167535
 22
0.410886914664878
 32
0
 13
0.177778156610889
 23
0.441882770433616
 33
0
  0
SOLID
  8
0
 62
8
 10
0.179327300088722
 20
0.410886914664878
 30
0
 11
0.208761026167535
 21
0.410886914664878
 31
0
 12
0.179327300088722
 22
0.410886914664878
 32
0
 13
0.177778156610889
 23
0.441882770433616
 33
0
  0
SOLID
  8
0
 62
8
 10
0.379232774711897
 20
0.268432465923172
 30
0
 11
0.383877667992209
 21
0.265334572490706
 31
0
 12
0.379232774711897
 22
0.268432465923172
 32
0
 13
0.393167454552832
 23
0.274628252788104
 33
0
  0
SOLID
  8
0
 62
8
 10
0.47213064031813
 20
0.370662949194548
 30
0
 11
0.487613617919169
 21
0.372211895910781
 31
0
 12
0.47213064031813
 22
0.370662949194548
 32
0
 13
0.487613617919169
 23
0.38770136307311
 33
0
  0
SOLID
  8
0
 62
8
 10
0.41639192095439
 20
0.401641883519207
 30
0
 11
0.425681707515014
 21
0.395446096654275
 31
0
 12
0.41639192095439
 22
0.401641883519207
 32
0
 13
0.436519791835741
 23
0.389250309789343
 33
0
  0
SOLID
  8
0
 62
8
 10
0.37613617919169
 20
0.627788104089219
 30
0
 11
0.36839469039117
 21
0.63863073110285
 31
0
 12
0.37613617919169
 22
0.627788104089219
 32
0
 13
0.357556606070443
 23
0.643277571251549
 33
0
  0
SOLID
  8
0
 62
8
 10
0.563480208164259
 20
0.383054522924411
 30
0
 11
0.580511483525402
 21
0.375309789343247
 31
0
 12
0.563480208164259
 22
0.383054522924411
 32
0
 13
0.583608079045609
 23
0.396995043370508
 33
0
  0
SOLID
  8
0
 62
8
 10
0.571221696964778
 20
0.440365551425031
 30
0
 11
0.558835314883947
 21
0.46050185873606
 31
0
 12
0.571221696964778
 22
0.440365551425031
 32
0
 13
0.557287017123843
 23
0.462050805452292
 33
0
  0
SOLID
  8
0
 62
8
 10
0.379232774711897
 20
0.268432465923172
 30
0
 11
0.393167454552832
 21
0.274628252788104
 31
0
 12
0.379232774711897
 22
0.268432465923172
 32
0
 13
0.399360645593248
 23
0.285470879801735
 33
0
  0
SOLID
  8
0
 62
8
 10
8.35079025320564E-02
 20
0.266883519206939
 30
0
 11
9.89908801330952E-02
 21
0.268432465923172
 31
0
 12
8.35079025320564E-02
 22
0.266883519206939
 32
0
 13
0.108280666693718
 23
0.276177199504337
 33
0
  0
SOLID
  8
0
 62
8
 10
0.139246621895796
 20
0.348977695167286
 30
0
 11
0.136150026375588
 21
0.362918215613383
 31
0
 12
0.139246621895796
 22
0.348977695167286
 32
0
 13
0.129956835335173
 23
0.373760842627014
 33
0
  0
SOLID
  8
0
 62
8
 10
0.479872129118649
 20
0.401641883519207
 30
0
 11
0.470582342558026
 21
0.415582403965304
 31
0
 12
0.479872129118649
 22
0.401641883519207
 32
0
 13
0.462840853757507
 23
0.424876084262701
 33
0
  0
SOLID
  8
0
 62
8
 10
0.139246621895796
 20
0.469795539033457
 30
0
 11
0.151633003976627
 21
0.477540272614622
 31
0
 12
0.139246621895796
 22
0.469795539033457
 32
0
 13
0.164019386057458
 23
0.48683395291202
 33
0
  0
SOLID
  8
0
 62
8
 10
0.349815117269924
 20
0.485285006195787
 30
0
 11
0.343621926229508
 21
0.494578686493185
 31
0
 12
0.349815117269924
 22
0.485285006195787
 32
0
 13
0.329687246388573
 23
0.510068153655514
 33
0
  0
SOLID
  8
0
 62
8
 10
0.47213064031813
 20
0.370662949194548
 30
0
 11
0.487613617919169
 21
0.38770136307311
 31
0
 12
0.47213064031813
 22
0.370662949194548
 32
0
 13
0.479872129118649
 23
0.401641883519207
 33
0
  0
SOLID
  8
0
 62
8
 10
7.88630092517448E-02
 20
0.324194547707559
 30
0
 11
7.42181159714332E-02
 21
0.313351920693928
 31
0
 12
7.88630092517448E-02
 22
0.324194547707559
 32
0
 13
7.11215204512254E-02
 23
0.2932156133829
 33
0
  0
SOLID
  8
0
 62
8
 10
0.390070859032625
 20
0.348977695167286
 30
0
 11
0.386974263512417
 21
0.366016109045849
 31
0
 12
0.390070859032625
 22
0.348977695167286
 32
0
 13
0.380781072472001
 23
0.379956629491945
 33
0
  0
SOLID
  8
0
 62
8
 10
0.139246621895796
 20
0.400092936802974
 30
0
 11
0.1407949196559
 21
0.421778190830235
 31
0
 12
0.139246621895796
 22
0.400092936802974
 32
0
 13
0.136150026375588
 23
0.432620817843866
 33
0
  0
SOLID
  8
0
 62
8
 10
0.232144487502029
 20
0.483736059479554
 30
0
 11
0.250724060623275
 21
0.480638166047088
 31
0
 12
0.232144487502029
 22
0.483736059479554
 32
0
 13
0.266207038224314
 23
0.483736059479554
 33
0
  0
SOLID
  8
0
 62
8
 10
0.338977032949196
 20
0.568928128872367
 30
0
 11
0.351363415030027
 21
0.581319702602231
 31
0
 12
0.338977032949196
 22
0.568928128872367
 32
0
 13
0.354460010550235
 23
0.599907063197026
 33
0
  0
SOLID
  8
0
 62
8
 10
0.100539177893199
 20
0.410935563816605
 30
0
 11
9.27976890926797E-02
 21
0.390799256505576
 31
0
 12
0.100539177893199
 22
0.410935563816605
 32
0
 13
9.27976890926797E-02
 23
0.37685873605948
 33
0
  0
SOLID
  8
0
 62
8
 10
0.455099364956987
 20
0.37685873605948
 30
0
 11
0.47213064031813
 21
0.370662949194548
 31
0
 12
0.455099364956987
 22
0.37685873605948
 32
0
 13
0.479872129118649
 23
0.401641883519207
 33
0
  0
SOLID
  8
0
 62
8
 10
0.354460010550235
 20
0.599907063197026
 30
0
 11
0.36839469039117
 21
0.606102850061958
 31
0
 12
0.354460010550235
 22
0.599907063197026
 32
0
 13
0.37613617919169
 23
0.627788104089219
 33
0
  0
SOLID
  8
0
 62
8
 10
0.363749797110859
 20
0.287019826517968
 30
0
 11
0.379232774711897
 21
0.268432465923172
 31
0
 12
0.363749797110859
 22
0.287019826517968
 32
0
 13
0.399360645593248
 23
0.285470879801735
 33
0
  0
SOLID
  8
0
 62
8
 10
0.411747027674079
 20
0.417131350681537
 30
0
 11
0.41639192095439
 21
0.401641883519207
 31
0
 12
0.411747027674079
 22
0.417131350681537
 32
0
 13
0.436519791835741
 23
0.389250309789343
 33
0
  0
SOLID
  8
0
 62
8
 10
0.136150026375588
 20
0.432620817843866
 30
0
 11
0.139246621895796
 21
0.449659231722429
 31
0
 12
0.136150026375588
 22
0.432620817843866
 32
0
 13
0.139246621895796
 23
0.469795539033457
 33
0
  0
SOLID
  8
0
 62
8
 10
0.363749797110859
 20
0.287019826517968
 30
0
 11
0.399360645593248
 21
0.285470879801735
 31
0
 12
0.363749797110859
 22
0.287019826517968
 32
0
 13
0.397812347833144
 23
0.302509293680297
 33
0
  0
SOLID
  8
0
 62
8
 10
0.224402998701509
 20
0.527106567534077
 30
0
 11
0.205823425580263
 21
0.537949194547708
 31
0
 12
0.224402998701509
 22
0.527106567534077
 32
0
 13
0.190340447979224
 23
0.542596034696406
 33
0
  0
SOLID
  8
0
 62
8
 10
0
 20
0.48
 30
0
 11
0
 21
0.44
 31
0
 12
0
 22
0.48
 32
0
 13
2.77691831683168E-02
 23
0.454306071871128
 33
0
  0
SOLID
  8
0
 62
8
 10
0
 20
0.48
 30
0
 11
2.77691831683168E-02
 21
0.454306071871128
 31
0
 12
0
 22
0.48
 32
0
 13
3.39623742087323E-02
 23
0.463599752168525
 33
0
  0
SOLID
  8
0
 62
8
 10
0.37613617919169
 20
0.627788104089219
 30
0
 11
0.357556606070443
 21
0.643277571251549
 31
0
 12
0.37613617919169
 22
0.627788104089219
 32
0
 13
0.337428735189093
 23
0.627788104089219
 33
0
  0
SOLID
  8
0
 62
8
 10
0.354460010550235
 20
0.599907063197026
 30
0
 11
0.37613617919169
 21
0.627788104089219
 31
0
 12
0.354460010550235
 22
0.599907063197026
 32
0
 13
0.337428735189093
 23
0.627788104089219
 33
0
  0
SOLID
  8
0
 62
8
 10
0.354460010550235
 20
0.599907063197026
 30
0
 11
0.337428735189093
 21
0.627788104089219
 31
0
 12
0.354460010550235
 22
0.599907063197026
 32
0
 13
0.325042353108262
 23
0.607651796778191
 33
0
  0
SOLID
  8
0
 62
8
 10
3.39623742087323E-02
 20
0.463599752168525
 30
0
 11
5.71868406102905E-02
 21
0.462050805452292
 31
0
 12
3.39623742087323E-02
 22
0.463599752168525
 32
0
 13
7.26698182113293E-02
 23
0.462050805452292
 33
0
  0
SOLID
  8
0
 62
8
 10
0.563480208164259
 20
0.383054522924411
 30
0
 11
0.583608079045609
 21
0.396995043370508
 31
0
 12
0.563480208164259
 22
0.383054522924411
 32
0
 13
0.577414888005194
 23
0.420229244114003
 33
0
  0
SOLID
  8
0
 62
8
 10
0.546448932803116
 20
0.412484510532838
 30
0
 11
0.563480208164259
 21
0.383054522924411
 31
0
 12
0.546448932803116
 22
0.412484510532838
 32
0
 13
0.577414888005194
 23
0.420229244114003
 33
0
  0
SOLID
  8
0
 62
8
 10
0.540255741762701
 20
0.421778190830235
 30
0
 11
0.546448932803116
 21
0.412484510532838
 31
0
 12
0.540255741762701
 22
0.421778190830235
 32
0
 13
0.577414888005194
 23
0.420229244114003
 33
0
  0
SOLID
  8
0
 62
8
 10
0.540255741762701
 20
0.421778190830235
 30
0
 11
0.577414888005194
 21
0.420229244114003
 31
0
 12
0.540255741762701
 22
0.421778190830235
 32
0
 13
0.571221696964778
 23
0.440365551425031
 33
0
  0
SOLID
  8
0
 62
8
 10
3.86072674890439E-02
 20
0.503872366790582
 30
0
 11
0
 21
0.48
 31
0
 12
3.86072674890439E-02
 22
0.503872366790582
 32
0
 13
3.39623742087323E-02
 23
0.463599752168525
 33
0
  0
SOLID
  8
0
 62
8
 10
0.357556606070443
 20
0.308705080545229
 30
0
 11
0.363749797110859
 21
0.287019826517968
 31
0
 12
0.357556606070443
 22
0.308705080545229
 32
0
 13
0.397812347833144
 23
0.302509293680297
 33
0
  0
SOLID
  8
0
 62
8
 10
7.11215204512254E-02
 20
0.2932156133829
 30
0
 11
8.35079025320564E-02
 21
0.266883519206939
 31
0
 12
7.11215204512254E-02
 22
0.2932156133829
 32
0
 13
0.108280666693718
 23
0.276177199504337
 33
0
  0
SOLID
  8
0
 62
8
 10
0.338977032949196
 20
0.568928128872367
 30
0
 11
0.354460010550235
 21
0.599907063197026
 31
0
 12
0.338977032949196
 22
0.568928128872367
 32
0
 13
0.325042353108262
 23
0.607651796778191
 33
0
  0
SOLID
  8
0
 62
8
 10
0.338977032949196
 20
0.568928128872367
 30
0
 11
0.325042353108262
 21
0.607651796778191
 31
0
 12
0.338977032949196
 22
0.568928128872367
 32
0
 13
0.311107673267327
 23
0.592162329615861
 33
0
  0
SOLID
  8
0
 62
8
 10
0.190340447979224
 20
0.542596034696406
 30
0
 11
0.165567683817562
 21
0.544144981412639
 31
0
 12
0.190340447979224
 22
0.542596034696406
 32
0
 13
0.150084706216523
 23
0.531753407682776
 33
0
  0
SOLID
  8
0
 62
8
 10
0.326590650868365
 20
0.553438661710037
 30
0
 11
0.338977032949196
 21
0.568928128872367
 31
0
 12
0.326590650868365
 22
0.553438661710037
 32
0
 13
0.311107673267327
 23
0.592162329615861
 33
0
  0
SOLID
  8
0
 62
8
 10
0.326590650868365
 20
0.553438661710037
 30
0
 11
0.311107673267327
 21
0.592162329615861
 31
0
 12
0.326590650868365
 22
0.553438661710037
 32
0
 13
0.29252810014608
 23
0.565830235439901
 33
0
  0
SOLID
  8
0
 62
8
 10
0.32039745982795
 20
0.536400247831475
 30
0
 11
0.326590650868365
 21
0.553438661710037
 31
0
 12
0.32039745982795
 22
0.536400247831475
 32
0
 13
0.29252810014608
 23
0.565830235439901
 33
0
  0
SOLID
  8
0
 62
8
 10
0.32039745982795
 20
0.536400247831475
 30
0
 11
0.29252810014608
 21
0.565830235439901
 31
0
 12
0.32039745982795
 22
0.536400247831475
 32
0
 13
0.281690015825353
 23
0.544144981412639
 33
0
  0
SOLID
  8
0
 62
8
 10
0.108280666693718
 20
0.276177199504337
 30
0
 11
0.117570453254342
 21
0.291666666666667
 31
0
 12
0.108280666693718
 22
0.276177199504337
 32
0
 13
0.117570453254342
 23
0.317998760842627
 33
0
  0
SOLID
  8
0
 62
8
 10
0.357556606070443
 20
0.308705080545229
 30
0
 11
0.397812347833144
 21
0.302509293680297
 31
0
 12
0.357556606070443
 22
0.308705080545229
 32
0
 13
0.394715752312936
 23
0.330390334572491
 33
0
  0
SOLID
  8
0
 62
8
 10
0.354460010550235
 20
0.331939281288724
 30
0
 11
0.357556606070443
 21
0.308705080545229
 31
0
 12
0.354460010550235
 22
0.331939281288724
 32
0
 13
0.394715752312936
 23
0.330390334572491
 33
0
  0
SOLID
  8
0
 62
8
 10
0.354460010550235
 20
0.331939281288724
 30
0
 11
0.394715752312936
 21
0.330390334572491
 31
0
 12
0.354460010550235
 22
0.331939281288724
 32
0
 13
0.390070859032625
 23
0.348977695167286
 33
0
  0
SOLID
  8
0
 62
8
 10
0.482968724638857
 20
0.499225526641884
 30
0
 11
0.464389151517611
 21
0.496127633209418
 31
0
 12
0.482968724638857
 22
0.499225526641884
 32
0
 13
0.445809578396364
 23
0.477540272614622
 33
0
  0
SOLID
  8
0
 62
8
 10
0.32039745982795
 20
0.524008674101611
 30
0
 11
0.32039745982795
 21
0.536400247831475
 31
0
 12
0.32039745982795
 22
0.524008674101611
 32
0
 13
0.281690015825353
 23
0.544144981412639
 33
0
  0
SOLID
  8
0
 62
8
 10
0.540255741762701
 20
0.421778190830235
 30
0
 11
0.571221696964778
 21
0.440365551425031
 31
0
 12
0.540255741762701
 22
0.421778190830235
 32
0
 13
0.557287017123843
 23
0.462050805452292
 33
0
  0
SOLID
  8
0
 62
8
 10
0.515482977601039
 20
0.448110285006196
 30
0
 11
0.540255741762701
 21
0.421778190830235
 31
0
 12
0.515482977601039
 22
0.448110285006196
 32
0
 13
0.557287017123843
 23
0.462050805452292
 33
0
  0
SOLID
  8
0
 62
8
 10
0.515482977601039
 20
0.448110285006196
 30
0
 11
0.557287017123843
 21
0.462050805452292
 31
0
 12
0.515482977601039
 22
0.448110285006196
 32
0
 13
0.526321061921766
 23
0.488382899628253
 33
0
  0
SOLID
  8
0
 62
8
 10
0.496903404479792
 20
0.458952912019827
 30
0
 11
0.515482977601039
 21
0.448110285006196
 31
0
 12
0.496903404479792
 22
0.458952912019827
 32
0
 13
0.526321061921766
 23
0.488382899628253
 33
0
  0
SOLID
  8
0
 62
8
 10
0.496903404479792
 20
0.458952912019827
 30
0
 11
0.526321061921766
 21
0.488382899628253
 31
0
 12
0.496903404479792
 22
0.458952912019827
 32
0
 13
0.512386382080831
 23
0.493029739776952
 33
0
  0
SOLID
  8
0
 62
8
 10
0.496903404479792
 20
0.458952912019827
 30
0
 11
0.512386382080831
 21
0.493029739776952
 31
0
 12
0.496903404479792
 22
0.458952912019827
 32
0
 13
0.482968724638857
 23
0.499225526641884
 33
0
  0
SOLID
  8
0
 62
8
 10
0.484517022398961
 20
0.458952912019827
 30
0
 11
0.496903404479792
 21
0.458952912019827
 31
0
 12
0.484517022398961
 22
0.458952912019827
 32
0
 13
0.482968724638857
 23
0.499225526641884
 33
0
  0
SOLID
  8
0
 62
8
 10
0.484517022398961
 20
0.458952912019827
 30
0
 11
0.482968724638857
 21
0.499225526641884
 31
0
 12
0.484517022398961
 22
0.458952912019827
 32
0
 13
0.445809578396364
 23
0.477540272614622
 33
0
  0
SOLID
  8
0
 62
8
 10
0.464389151517611
 20
0.448110285006196
 30
0
 11
0.484517022398961
 21
0.458952912019827
 31
0
 12
0.464389151517611
 22
0.448110285006196
 32
0
 13
0.445809578396364
 23
0.477540272614622
 33
0
  0
SOLID
  8
0
 62
8
 10
0.458195960477195
 20
0.438816604708798
 30
0
 11
0.464389151517611
 21
0.448110285006196
 31
0
 12
0.458195960477195
 22
0.438816604708798
 32
0
 13
0.445809578396364
 23
0.477540272614622
 33
0
  0
SOLID
  8
0
 62
8
 10
0.436519791835741
 20
0.389250309789343
 30
0
 11
0.455099364956987
 21
0.37685873605948
 31
0
 12
0.436519791835741
 22
0.389250309789343
 32
0
 13
0.479872129118649
 23
0.401641883519207
 33
0
  0
SOLID
  8
0
 62
8
 10
0.436519791835741
 20
0.389250309789343
 30
0
 11
0.479872129118649
 21
0.401641883519207
 31
0
 12
0.436519791835741
 22
0.389250309789343
 32
0
 13
0.462840853757507
 23
0.424876084262701
 33
0
  0
SOLID
  8
0
 62
8
 10
0.32039745982795
 20
0.524008674101611
 30
0
 11
0.281690015825353
 21
0.544144981412639
 31
0
 12
0.32039745982795
 22
0.524008674101611
 32
0
 13
0.273948527024834
 23
0.525557620817844
 33
0
  0
SOLID
  8
0
 62
8
 10
0.123763644294757
 20
0.327292441140025
 30
0
 11
0.139246621895796
 21
0.348977695167286
 31
0
 12
0.123763644294757
 22
0.327292441140025
 32
0
 13
0.129956835335173
 23
0.373760842627014
 33
0
  0
SOLID
  8
0
 62
8
 10
0.323494055348158
 20
0.435718711276332
 30
0
 11
0.323494055348158
 21
0.41868029739777
 31
0
 12
0.323494055348158
 22
0.435718711276332
 32
0
 13
0.329687246388573
 23
0.389250309789343
 33
0
  0
SOLID
  8
0
 62
8
 10
0.458195960477195
 20
0.438816604708798
 30
0
 11
0.445809578396364
 21
0.477540272614622
 31
0
 12
0.458195960477195
 22
0.438816604708798
 32
0
 13
0.42413340975491
 23
0.47134448574969
 33
0
  0
SOLID
  8
0
 62
8
 10
3.39623742087323E-02
 20
0.463599752168525
 30
0
 11
7.26698182113293E-02
 21
0.462050805452292
 31
0
 12
3.39623742087323E-02
 22
0.463599752168525
 32
0
 13
8.50562002921603E-02
 23
0.462050805452292
 33
0
  0
SOLID
  8
0
 62
8
 10
0.411747027674079
 20
0.417131350681537
 30
0
 11
0.436519791835741
 21
0.389250309789343
 31
0
 12
0.411747027674079
 22
0.417131350681537
 32
0
 13
0.462840853757507
 23
0.424876084262701
 33
0
  0
SOLID
  8
0
 62
8
 10
0.411747027674079
 20
0.417131350681537
 30
0
 11
0.462840853757507
 21
0.424876084262701
 31
0
 12
0.411747027674079
 22
0.417131350681537
 32
0
 13
0.458195960477195
 23
0.438816604708798
 33
0
  0
SOLID
  8
0
 62
8
 10
0.108280666693718
 20
0.426425030978934
 30
0
 11
0.100539177893199
 21
0.410935563816605
 31
0
 12
0.108280666693718
 22
0.426425030978934
 32
0
 13
9.27976890926797E-02
 23
0.37685873605948
 33
0
  0
SOLID
  8
0
 62
8
 10
0.190340447979224
 20
0.542596034696406
 30
0
 11
0.150084706216523
 21
0.531753407682776
 31
0
 12
0.190340447979224
 22
0.542596034696406
 32
0
 13
0.1407949196559
 23
0.525557620817844
 33
0
  0
SOLID
  8
0
 62
8
 10
7.11215204512254E-02
 20
0.2932156133829
 30
0
 11
0.108280666693718
 21
0.276177199504337
 31
0
 12
7.11215204512254E-02
 22
0.2932156133829
 32
0
 13
0.117570453254342
 23
0.317998760842627
 33
0
  0
SOLID
  8
0
 62
8
 10
7.88630092517448E-02
 20
0.324194547707559
 30
0
 11
7.11215204512254E-02
 21
0.2932156133829
 31
0
 12
7.88630092517448E-02
 22
0.324194547707559
 32
0
 13
0.117570453254342
 23
0.317998760842627
 33
0
  0
SOLID
  8
0
 62
8
 10
9.27976890926797E-02
 20
0.342781908302354
 30
0
 11
7.88630092517448E-02
 21
0.324194547707559
 31
0
 12
9.27976890926797E-02
 22
0.342781908302354
 32
0
 13
0.117570453254342
 23
0.317998760842627
 33
0
  0
SOLID
  8
0
 62
8
 10
9.27976890926797E-02
 20
0.342781908302354
 30
0
 11
0.117570453254342
 21
0.317998760842627
 31
0
 12
9.27976890926797E-02
 22
0.342781908302354
 32
0
 13
0.123763644294757
 23
0.327292441140025
 33
0
  0
SOLID
  8
0
 62
8
 10
9.89908801330952E-02
 20
0.353624535315985
 30
0
 11
9.27976890926797E-02
 21
0.342781908302354
 31
0
 12
9.89908801330952E-02
 22
0.353624535315985
 32
0
 13
0.123763644294757
 23
0.327292441140025
 33
0
  0
SOLID
  8
0
 62
8
 10
9.89908801330952E-02
 20
0.353624535315985
 30
0
 11
0.123763644294757
 21
0.327292441140025
 31
0
 12
9.89908801330952E-02
 22
0.353624535315985
 32
0
 13
0.129956835335173
 23
0.373760842627014
 33
0
  0
SOLID
  8
0
 62
8
 10
9.27976890926797E-02
 20
0.37685873605948
 30
0
 11
9.89908801330952E-02
 21
0.353624535315985
 31
0
 12
9.27976890926797E-02
 22
0.37685873605948
 32
0
 13
0.129956835335173
 23
0.373760842627014
 33
0
  0
SOLID
  8
0
 62
8
 10
9.27976890926797E-02
 20
0.37685873605948
 30
0
 11
0.129956835335173
 21
0.373760842627014
 31
0
 12
9.27976890926797E-02
 22
0.37685873605948
 32
0
 13
0.139246621895796
 23
0.400092936802974
 33
0
  0
SOLID
  8
0
 62
8
 10
0.108280666693718
 20
0.426425030978934
 30
0
 11
9.27976890926797E-02
 21
0.37685873605948
 31
0
 12
0.108280666693718
 22
0.426425030978934
 32
0
 13
0.139246621895796
 23
0.400092936802974
 33
0
  0
SOLID
  8
0
 62
8
 10
0.108280666693718
 20
0.426425030978934
 30
0
 11
0.139246621895796
 21
0.400092936802974
 31
0
 12
0.108280666693718
 22
0.426425030978934
 32
0
 13
0.136150026375588
 23
0.432620817843866
 33
0
  0
SOLID
  8
0
 62
8
 10
0.102087475653303
 20
0.438816604708798
 30
0
 11
0.108280666693718
 21
0.426425030978934
 31
0
 12
0.102087475653303
 22
0.438816604708798
 32
0
 13
0.136150026375588
 23
0.432620817843866
 33
0
  0
SOLID
  8
0
 62
8
 10
0.102087475653303
 20
0.438816604708798
 30
0
 11
0.136150026375588
 21
0.432620817843866
 31
0
 12
0.102087475653303
 22
0.438816604708798
 32
0
 13
0.139246621895796
 23
0.469795539033457
 33
0
  0
SOLID
  8
0
 62
8
 10
9.12493913325758E-02
 20
0.455855018587361
 30
0
 11
0.102087475653303
 21
0.438816604708798
 31
0
 12
9.12493913325758E-02
 22
0.455855018587361
 32
0
 13
0.139246621895796
 23
0.469795539033457
 33
0
  0
SOLID
  8
0
 62
8
 10
0.116022155494238
 20
0.51316604708798
 30
0
 11
9.43459868527836E-02
 21
0.516263940520446
 31
0
 12
0.116022155494238
 22
0.51316604708798
 32
0
 13
0.063380031650706
 23
0.516263940520446
 33
0
  0
SOLID
  8
0
 62
8
 10
0.338977032949196
 20
0.364467162329616
 30
0
 11
0.354460010550235
 21
0.331939281288724
 31
0
 12
0.338977032949196
 22
0.364467162329616
 32
0
 13
0.390070859032625
 23
0.348977695167286
 33
0
  0
SOLID
  8
0
 62
8
 10
0.338977032949196
 20
0.364467162329616
 30
0
 11
0.390070859032625
 21
0.348977695167286
 31
0
 12
0.338977032949196
 22
0.364467162329616
 32
0
 13
0.380781072472001
 23
0.379956629491945
 33
0
  0
SOLID
  8
0
 62
8
 10
0.338977032949196
 20
0.364467162329616
 30
0
 11
0.380781072472001
 21
0.379956629491945
 31
0
 12
0.338977032949196
 22
0.364467162329616
 32
0
 13
0.37613617919169
 23
0.400092936802974
 33
0
  0
SOLID
  8
0
 62
8
 10
0.329687246388573
 20
0.389250309789343
 30
0
 11
0.338977032949196
 21
0.364467162329616
 31
0
 12
0.329687246388573
 22
0.389250309789343
 32
0
 13
0.37613617919169
 23
0.400092936802974
 33
0
  0
SOLID
  8
0
 62
8
 10
8.50562002921603E-02
 20
0.462050805452292
 30
0
 11
9.12493913325758E-02
 21
0.455855018587361
 31
0
 12
8.50562002921603E-02
 22
0.462050805452292
 32
0
 13
0.139246621895796
 23
0.469795539033457
 33
0
  0
SOLID
  8
0
 62
8
 10
0.411747027674079
 20
0.417131350681537
 30
0
 11
0.458195960477195
 21
0.438816604708798
 31
0
 12
0.411747027674079
 22
0.417131350681537
 32
0
 13
0.42413340975491
 23
0.47134448574969
 33
0
  0
SOLID
  8
0
 62
8
 10
0.411747027674079
 20
0.417131350681537
 30
0
 11
0.42413340975491
 21
0.47134448574969
 31
0
 12
0.411747027674079
 22
0.417131350681537
 32
0
 13
0.407102134393767
 23
0.468246592317224
 33
0
  0
SOLID
  8
0
 62
8
 10
0.394715752312936
 20
0.420229244114003
 30
0
 11
0.411747027674079
 21
0.417131350681537
 31
0
 12
0.394715752312936
 22
0.420229244114003
 32
0
 13
0.407102134393767
 23
0.468246592317224
 33
0
  0
SOLID
  8
0
 62
8
 10
0.394715752312936
 20
0.420229244114003
 30
0
 11
0.407102134393767
 21
0.468246592317224
 31
0
 12
0.394715752312936
 22
0.420229244114003
 32
0
 13
0.386974263512417
 23
0.465148698884758
 33
0
  0
SOLID
  8
0
 62
8
 10
0.382329370232105
 20
0.414033457249071
 30
0
 11
0.394715752312936
 21
0.420229244114003
 31
0
 12
0.382329370232105
 22
0.414033457249071
 32
0
 13
0.386974263512417
 23
0.465148698884758
 33
0
  0
SOLID
  8
0
 62
8
 10
0.329687246388573
 20
0.510068153655514
 30
0
 11
0.32039745982795
 21
0.524008674101611
 31
0
 12
0.329687246388573
 22
0.510068153655514
 32
0
 13
0.273948527024834
 23
0.525557620817844
 33
0
  0
SOLID
  8
0
 62
8
 10
0.208920021100471
 20
0.493029739776952
 30
0
 11
0.232144487502029
 21
0.483736059479554
 31
0
 12
0.208920021100471
 22
0.493029739776952
 32
0
 13
0.266207038224314
 23
0.483736059479554
 33
0
  0
SOLID
  8
0
 62
8
 10
0.329687246388573
 20
0.389250309789343
 30
0
 11
0.37613617919169
 21
0.400092936802974
 31
0
 12
0.329687246388573
 22
0.389250309789343
 32
0
 13
0.382329370232105
 23
0.414033457249071
 33
0
  0
SOLID
  8
0
 62
8
 10
0.063380031650706
 20
0.516263940520446
 30
0
 11
3.86072674890439E-02
 21
0.503872366790582
 31
0
 12
0.063380031650706
 22
0.516263940520446
 32
0
 13
3.39623742087323E-02
 23
0.463599752168525
 33
0
  0
SOLID
  8
0
 62
8
 10
0.063380031650706
 20
0.516263940520446
 30
0
 11
3.39623742087323E-02
 21
0.463599752168525
 31
0
 12
0.063380031650706
 22
0.516263940520446
 32
0
 13
8.50562002921603E-02
 23
0.462050805452292
 33
0
  0
SOLID
  8
0
 62
8
 10
0.116022155494238
 20
0.51316604708798
 30
0
 11
0.063380031650706
 21
0.516263940520446
 31
0
 12
0.116022155494238
 22
0.51316604708798
 32
0
 13
8.50562002921603E-02
 23
0.462050805452292
 33
0
  0
SOLID
  8
0
 62
8
 10
0.116022155494238
 20
0.51316604708798
 30
0
 11
8.50562002921603E-02
 21
0.462050805452292
 31
0
 12
0.116022155494238
 22
0.51316604708798
 32
0
 13
0.139246621895796
 23
0.469795539033457
 33
0
  0
SOLID
  8
0
 62
8
 10
0.116022155494238
 20
0.51316604708798
 30
0
 11
0.139246621895796
 21
0.469795539033457
 31
0
 12
0.116022155494238
 22
0.51316604708798
 32
0
 13
0.164019386057458
 23
0.48683395291202
 33
0
  0
SOLID
  8
0
 62
8
 10
0.1407949196559
 20
0.525557620817844
 30
0
 11
0.116022155494238
 21
0.51316604708798
 31
0
 12
0.1407949196559
 22
0.525557620817844
 32
0
 13
0.164019386057458
 23
0.48683395291202
 33
0
  0
SOLID
  8
0
 62
8
 10
0.1407949196559
 20
0.525557620817844
 30
0
 11
0.164019386057458
 21
0.48683395291202
 31
0
 12
0.1407949196559
 22
0.525557620817844
 32
0
 13
0.179502363658497
 23
0.493029739776952
 33
0
  0
SOLID
  8
0
 62
8
 10
0.190340447979224
 20
0.542596034696406
 30
0
 11
0.1407949196559
 21
0.525557620817844
 31
0
 12
0.190340447979224
 22
0.542596034696406
 32
0
 13
0.179502363658497
 23
0.493029739776952
 33
0
  0
SOLID
  8
0
 62
8
 10
0.190340447979224
 20
0.542596034696406
 30
0
 11
0.179502363658497
 21
0.493029739776952
 31
0
 12
0.190340447979224
 22
0.542596034696406
 32
0
 13
0.198081936779743
 23
0.493029739776952
 33
0
  0
SOLID
  8
0
 62
8
 10
0.224402998701509
 20
0.527106567534077
 30
0
 11
0.190340447979224
 21
0.542596034696406
 31
0
 12
0.224402998701509
 22
0.527106567534077
 32
0
 13
0.198081936779743
 23
0.493029739776952
 33
0
  0
SOLID
  8
0
 62
8
 10
0.224402998701509
 20
0.527106567534077
 30
0
 11
0.198081936779743
 21
0.493029739776952
 31
0
 12
0.224402998701509
 22
0.527106567534077
 32
0
 13
0.208920021100471
 23
0.493029739776952
 33
0
  0
SOLID
  8
0
 62
8
 10
0.241434274062652
 20
0.520910780669145
 30
0
 11
0.224402998701509
 21
0.527106567534077
 31
0
 12
0.241434274062652
 22
0.520910780669145
 32
0
 13
0.208920021100471
 23
0.493029739776952
 33
0
  0
SOLID
  8
0
 62
8
 10
0.241434274062652
 20
0.520910780669145
 30
0
 11
0.208920021100471
 21
0.493029739776952
 31
0
 12
0.241434274062652
 22
0.520910780669145
 32
0
 13
0.266207038224314
 23
0.483736059479554
 33
0
  0
SOLID
  8
0
 62
8
 10
0.258465549423795
 20
0.519361833952912
 30
0
 11
0.241434274062652
 21
0.520910780669145
 31
0
 12
0.258465549423795
 22
0.519361833952912
 32
0
 13
0.266207038224314
 23
0.483736059479554
 33
0
  0
SOLID
  8
0
 62
8
 10
0.273948527024834
 20
0.525557620817844
 30
0
 11
0.258465549423795
 21
0.519361833952912
 31
0
 12
0.273948527024834
 22
0.525557620817844
 32
0
 13
0.266207038224314
 23
0.483736059479554
 33
0
  0
SOLID
  8
0
 62
8
 10
0.273948527024834
 20
0.525557620817844
 30
0
 11
0.266207038224314
 21
0.483736059479554
 31
0
 12
0.273948527024834
 22
0.525557620817844
 32
0
 13
0.286334909105665
 23
0.483736059479554
 33
0
  0
SOLID
  8
0
 62
8
 10
0.329687246388573
 20
0.510068153655514
 30
0
 11
0.273948527024834
 21
0.525557620817844
 31
0
 12
0.329687246388573
 22
0.510068153655514
 32
0
 13
0.286334909105665
 23
0.483736059479554
 33
0
  0
SOLID
  8
0
 62
8
 10
0.329687246388573
 20
0.510068153655514
 30
0
 11
0.286334909105665
 21
0.483736059479554
 31
0
 12
0.329687246388573
 22
0.510068153655514
 32
0
 13
0.311107673267327
 23
0.468246592317224
 33
0
  0
SOLID
  8
0
 62
8
 10
0.349815117269924
 20
0.485285006195787
 30
0
 11
0.329687246388573
 21
0.510068153655514
 31
0
 12
0.349815117269924
 22
0.485285006195787
 32
0
 13
0.311107673267327
 23
0.468246592317224
 33
0
  0
SOLID
  8
0
 62
8
 10
0.349815117269924
 20
0.485285006195787
 30
0
 11
0.311107673267327
 21
0.468246592317224
 31
0
 12
0.349815117269924
 22
0.485285006195787
 32
0
 13
0.32039745982795
 23
0.455855018587361
 33
0
  0
SOLID
  8
0
 62
8
 10
0.36839469039117
 20
0.472893432465923
 30
0
 11
0.349815117269924
 21
0.485285006195787
 31
0
 12
0.36839469039117
 22
0.472893432465923
 32
0
 13
0.32039745982795
 23
0.455855018587361
 33
0
  0
SOLID
  8
0
 62
8
 10
0.36839469039117
 20
0.472893432465923
 30
0
 11
0.32039745982795
 21
0.455855018587361
 31
0
 12
0.36839469039117
 22
0.472893432465923
 32
0
 13
0.323494055348158
 23
0.435718711276332
 33
0
  0
SOLID
  8
0
 62
8
 10
0.382329370232105
 20
0.414033457249071
 30
0
 11
0.386974263512417
 21
0.465148698884758
 31
0
 12
0.382329370232105
 22
0.414033457249071
 32
0
 13
0.36839469039117
 23
0.472893432465923
 33
0
  0
SOLID
  8
0
 62
8
 10
0.382329370232105
 20
0.414033457249071
 30
0
 11
0.36839469039117
 21
0.472893432465923
 31
0
 12
0.382329370232105
 22
0.414033457249071
 32
0
 13
0.323494055348158
 23
0.435718711276332
 33
0
  0
SOLID
  8
0
 62
8
 10
0.329687246388573
 20
0.389250309789343
 30
0
 11
0.382329370232105
 21
0.414033457249071
 31
0
 12
0.329687246388573
 22
0.389250309789343
 32
0
 13
0.323494055348158
 23
0.435718711276332
 33
0
  0
SOLID
  8
0
 62
8
 10
1.20198044828371E-02
 20
0.544169094470451
 30
0
 11
2.28638088276629E-02
 21
0.539519716105141
 31
0
 12
1.20198044828371E-02
 22
0.544169094470451
 32
0
 13
2.75112392611597E-02
 23
0.537969923316704
 33
0
  0
SOLID
  8
0
 62
8
 10
3.68061001281533E-02
 20
0.655754175237908
 30
0
 11
0.029060382738992
 21
0.651104796872597
 31
0
 12
3.68061001281533E-02
 22
0.655754175237908
 32
0
 13
2.13146653498307E-02
 23
0.641806040141976
 33
0
  0
SOLID
  8
0
 62
8
 10
8.92151752717255E-03
 20
0.553467851201073
 30
0
 11
1.20198044828371E-02
 21
0.544169094470451
 31
0
 12
8.92151752717255E-03
 22
0.553467851201073
 32
0
 13
2.75112392611597E-02
 23
0.537969923316704
 33
0
  0
SOLID
  8
0
 62
8
 10
0.297062204403973
 20
0.716196093986947
 30
0
 11
0.286218200059148
 21
0.725494850717568
 31
0
 12
0.297062204403973
 22
0.716196093986947
 32
0
 13
0.27382505223649
 23
0.723945057929132
 33
0
  0
SOLID
  8
0
 62
8
 10
6.00432522956372E-02
 20
0.648005211295724
 30
0
 11
5.22975349064759E-02
 21
0.654204382449471
 31
0
 12
6.00432522956372E-02
 22
0.648005211295724
 32
0
 13
3.68061001281533E-02
 23
0.655754175237908
 33
0
  0
SOLID
  8
0
 62
8
 10
7.08872566404631E-02
 20
0.581364121392937
 30
0
 11
5.38466783843082E-02
 21
0.590662878123558
 31
0
 12
7.08872566404631E-02
 22
0.581364121392937
 32
0
 13
4.45518175173146E-02
 23
0.587563292546685
 33
0
  0
SOLID
  8
0
 62
8
 10
2.13146653498307E-02
 20
0.615459562738549
 30
0
 11
1.20198044828371E-02
 21
0.601511427642617
 31
0
 12
2.13146653498307E-02
 22
0.615459562738549
 32
0
 13
8.92151752717255E-03
 23
0.590662878123558
 33
0
  0
SOLID
  8
0
 62
8
 10
6.93381131626308E-02
 20
0.62010894110386
 30
0
 11
7.08872566404631E-02
 21
0.641806040141976
 31
0
 12
6.93381131626308E-02
 22
0.62010894110386
 32
0
 13
6.00432522956372E-02
 23
0.648005211295724
 33
0
  0
SOLID
  8
0
 62
8
 10
0.190171304433547
 20
0.613909769950112
 30
0
 11
0.174679869655225
 21
0.617009355526986
 31
0
 12
0.190171304433547
 22
0.613909769950112
 32
0
 13
0.160737578354734
 23
0.613909769950112
 33
0
  0
SOLID
  8
0
 62
8
 10
3.68061001281533E-02
 20
0.655754175237908
 30
0
 11
2.13146653498307E-02
 21
0.641806040141976
 31
0
 12
3.68061001281533E-02
 22
0.655754175237908
 32
0
 13
2.13146653498307E-02
 23
0.627857905046044
 33
0
  0
SOLID
  8
0
 62
8
 10
0.27382505223649
 20
0.723945057929132
 30
0
 11
0.261431904413831
 21
0.709996922833199
 31
0
 12
0.27382505223649
 22
0.723945057929132
 32
0
 13
0.259882760935999
 23
0.69449899494883
 33
0
  0
SOLID
  8
0
 62
8
 10
0.236645608768515
 20
0.564316400720131
 30
0
 11
0.247489613113341
 21
0.570515571873879
 31
0
 12
0.236645608768515
 22
0.564316400720131
 32
0
 13
0.258333617458167
 23
0.589113085335122
 33
0
  0
SOLID
  8
0
 62
8
 10
9.87718392414438E-02
 20
0.542619301682015
 30
0
 11
0.114263274019766
 21
0.556567436777947
 31
0
 12
9.87718392414438E-02
 22
0.542619301682015
 32
0
 13
0.12355813488676
 23
0.565866193508568
 33
0
  0
SOLID
  8
0
 62
8
 10
8.92151752717255E-03
 20
0.553467851201073
 30
0
 11
2.75112392611597E-02
 21
0.537969923316704
 31
0
 12
8.92151752717255E-03
 22
0.553467851201073
 32
0
 13
4.30026740394823E-02
 23
0.544169094470451
 33
0
  0
SOLID
  8
0
 62
8
 10
0.25368618702467
 20
0.652654589661034
 30
0
 11
0.241293039202012
 21
0.641806040141976
 31
0
 12
0.25368618702467
 22
0.652654589661034
 32
0
 13
0.228899891379354
 23
0.62475831946917
 33
0
  0
SOLID
  8
0
 62
8
 10
5.69449653399727E-02
 20
0.610810184373238
 30
0
 11
6.93381131626308E-02
 21
0.62010894110386
 31
0
 12
5.69449653399727E-02
 22
0.610810184373238
 32
0
 13
6.00432522956372E-02
 23
0.648005211295724
 33
0
  0
SOLID
  8
0
 62
8
 10
0.122008991408928
 20
0.606160806007927
 30
0
 11
0.104968413152773
 21
0.598411842065743
 31
0
 12
0.122008991408928
 22
0.606160806007927
 32
0
 13
0.087927834896618
 23
0.589113085335122
 33
0
  0
SOLID
  8
0
 62
8
 10
0.160737578354734
 20
0.613909769950112
 30
0
 11
0.143697000098579
 21
0.610810184373238
 31
0
 12
0.160737578354734
 22
0.613909769950112
 32
0
 13
0.122008991408928
 23
0.606160806007927
 33
0
  0
SOLID
  8
0
 62
8
 10
0.303258778315303
 20
0.696048787737267
 30
0
 11
0.297062204403973
 21
0.716196093986947
 31
0
 12
0.303258778315303
 22
0.696048787737267
 32
0
 13
0.27382505223649
 23
0.723945057929132
 33
0
  0
SOLID
  8
0
 62
8
 10
3.68061001281533E-02
 20
0.655754175237908
 30
0
 11
2.13146653498307E-02
 21
0.627857905046044
 31
0
 12
3.68061001281533E-02
 22
0.655754175237908
 32
0
 13
2.13146653498307E-02
 23
0.615459562738549
 33
0
  0
SOLID
  8
0
 62
8
 10
0.303258778315303
 20
0.696048787737267
 30
0
 11
0.27382505223649
 21
0.723945057929132
 31
0
 12
0.303258778315303
 22
0.696048787737267
 32
0
 13
0.259882760935999
 23
0.69449899494883
 33
0
  0
SOLID
  8
0
 62
8
 10
8.92151752717255E-03
 20
0.572065364662316
 30
0
 11
8.92151752717255E-03
 21
0.553467851201073
 31
0
 12
8.92151752717255E-03
 22
0.572065364662316
 32
0
 13
4.30026740394823E-02
 23
0.544169094470451
 33
0
  0
SOLID
  8
0
 62
8
 10
0.269177621802993
 20
0.607710598796364
 30
0
 11
0.286218200059148
 21
0.632507283411355
 31
0
 12
0.269177621802993
 22
0.607710598796364
 32
0
 13
0.293963917448309
 23
0.64490562571885
 33
0
  0
SOLID
  8
0
 62
8
 10
2.13146653498307E-02
 20
0.615459562738549
 30
0
 11
8.92151752717255E-03
 21
0.590662878123558
 31
0
 12
2.13146653498307E-02
 22
0.615459562738549
 32
0
 13
8.92151752717255E-03
 23
0.572065364662316
 33
0
  0
SOLID
  8
0
 62
8
 10
8.17312609852889E-02
 20
0.544169094470451
 30
0
 11
9.87718392414438E-02
 21
0.542619301682015
 31
0
 12
8.17312609852889E-02
 22
0.544169094470451
 32
0
 13
0.12355813488676
 23
0.565866193508568
 33
0
  0
SOLID
  8
0
 62
8
 10
0.303258778315303
 20
0.674351688699151
 30
0
 11
0.303258778315303
 21
0.696048787737267
 31
0
 12
0.303258778315303
 22
0.674351688699151
 32
0
 13
0.259882760935999
 23
0.69449899494883
 33
0
  0
SOLID
  8
0
 62
8
 10
0.303258778315303
 20
0.674351688699151
 30
0
 11
0.259882760935999
 21
0.69449899494883
 31
0
 12
0.303258778315303
 22
0.674351688699151
 32
0
 13
0.259882760935999
 23
0.66970231033384
 33
0
  0
SOLID
  8
0
 62
8
 10
0.293963917448309
 20
0.64490562571885
 30
0
 11
0.303258778315303
 21
0.674351688699151
 31
0
 12
0.293963917448309
 22
0.64490562571885
 32
0
 13
0.259882760935999
 23
0.66970231033384
 33
0
  0
SOLID
  8
0
 62
8
 10
0.293963917448309
 20
0.64490562571885
 30
0
 11
0.259882760935999
 21
0.66970231033384
 31
0
 12
0.293963917448309
 22
0.64490562571885
 32
0
 13
0.25368618702467
 23
0.652654589661034
 33
0
  0
SOLID
  8
0
 62
8
 10
0.269177621802993
 20
0.607710598796364
 30
0
 11
0.293963917448309
 21
0.64490562571885
 31
0
 12
0.269177621802993
 22
0.607710598796364
 32
0
 13
0.25368618702467
 23
0.652654589661034
 33
0
  0
SOLID
  8
0
 62
8
 10
0.269177621802993
 20
0.607710598796364
 30
0
 11
0.25368618702467
 21
0.652654589661034
 31
0
 12
0.269177621802993
 22
0.607710598796364
 32
0
 13
0.228899891379354
 23
0.62475831946917
 33
0
  0
SOLID
  8
0
 62
8
 10
0.258333617458167
 20
0.589113085335122
 30
0
 11
0.269177621802993
 21
0.607710598796364
 31
0
 12
0.258333617458167
 22
0.589113085335122
 32
0
 13
0.228899891379354
 23
0.62475831946917
 33
0
  0
SOLID
  8
0
 62
8
 10
0.258333617458167
 20
0.589113085335122
 30
0
 11
0.228899891379354
 21
0.62475831946917
 31
0
 12
0.258333617458167
 22
0.589113085335122
 32
0
 13
0.21960503051236
 23
0.615459562738549
 33
0
  0
SOLID
  8
0
 62
8
 10
0.208761026167535
 20
0.607710598796364
 30
0
 11
0.190171304433547
 21
0.613909769950112
 31
0
 12
0.208761026167535
 22
0.607710598796364
 32
0
 13
0.160737578354734
 23
0.613909769950112
 33
0
  0
SOLID
  8
0
 62
8
 10
5.69449653399727E-02
 20
0.610810184373238
 30
0
 11
6.00432522956372E-02
 21
0.648005211295724
 31
0
 12
5.69449653399727E-02
 22
0.610810184373238
 32
0
 13
3.68061001281533E-02
 23
0.655754175237908
 33
0
  0
SOLID
  8
0
 62
8
 10
5.69449653399727E-02
 20
0.610810184373238
 30
0
 11
3.68061001281533E-02
 21
0.655754175237908
 31
0
 12
5.69449653399727E-02
 22
0.610810184373238
 32
0
 13
2.13146653498307E-02
 23
0.615459562738549
 33
0
  0
SOLID
  8
0
 62
8
 10
4.45518175173146E-02
 20
0.587563292546685
 30
0
 11
5.69449653399727E-02
 21
0.610810184373238
 31
0
 12
4.45518175173146E-02
 22
0.587563292546685
 32
0
 13
2.13146653498307E-02
 23
0.615459562738549
 33
0
  0
SOLID
  8
0
 62
8
 10
4.45518175173146E-02
 20
0.587563292546685
 30
0
 11
2.13146653498307E-02
 21
0.615459562738549
 31
0
 12
4.45518175173146E-02
 22
0.587563292546685
 32
0
 13
8.92151752717255E-03
 23
0.572065364662316
 33
0
  0
SOLID
  8
0
 62
8
 10
4.45518175173146E-02
 20
0.587563292546685
 30
0
 11
8.92151752717255E-03
 21
0.572065364662316
 31
0
 12
4.45518175173146E-02
 22
0.587563292546685
 32
0
 13
4.30026740394823E-02
 23
0.544169094470451
 33
0
  0
SOLID
  8
0
 62
8
 10
7.08872566404631E-02
 20
0.581364121392937
 30
0
 11
4.45518175173146E-02
 21
0.587563292546685
 31
0
 12
7.08872566404631E-02
 22
0.581364121392937
 32
0
 13
4.30026740394823E-02
 23
0.544169094470451
 33
0
  0
SOLID
  8
0
 62
8
 10
7.08872566404631E-02
 20
0.581364121392937
 30
0
 11
4.30026740394823E-02
 21
0.544169094470451
 31
0
 12
7.08872566404631E-02
 22
0.581364121392937
 32
0
 13
6.15923957734695E-02
 23
0.544169094470451
 33
0
  0
SOLID
  8
0
 62
8
 10
7.08872566404631E-02
 20
0.581364121392937
 30
0
 11
6.15923957734695E-02
 21
0.544169094470451
 31
0
 12
7.08872566404631E-02
 22
0.581364121392937
 32
0
 13
8.17312609852889E-02
 23
0.544169094470451
 33
0
  0
SOLID
  8
0
 62
8
 10
0.087927834896618
 20
0.589113085335122
 30
0
 11
7.08872566404631E-02
 21
0.581364121392937
 31
0
 12
0.087927834896618
 22
0.589113085335122
 32
0
 13
8.17312609852889E-02
 23
0.544169094470451
 33
0
  0
SOLID
  8
0
 62
8
 10
0.087927834896618
 20
0.589113085335122
 30
0
 11
8.17312609852889E-02
 21
0.544169094470451
 31
0
 12
0.087927834896618
 22
0.589113085335122
 32
0
 13
0.12355813488676
 23
0.565866193508568
 33
0
  0
SOLID
  8
0
 62
8
 10
0.122008991408928
 20
0.606160806007927
 30
0
 11
0.087927834896618
 21
0.589113085335122
 31
0
 12
0.122008991408928
 22
0.606160806007927
 32
0
 13
0.12355813488676
 23
0.565866193508568
 33
0
  0
SOLID
  8
0
 62
8
 10
0.122008991408928
 20
0.606160806007927
 30
0
 11
0.12355813488676
 21
0.565866193508568
 31
0
 12
0.122008991408928
 22
0.606160806007927
 32
0
 13
0.143697000098579
 23
0.575164950239189
 33
0
  0
SOLID
  8
0
 62
8
 10
0.160737578354734
 20
0.613909769950112
 30
0
 11
0.122008991408928
 21
0.606160806007927
 31
0
 12
0.160737578354734
 22
0.613909769950112
 32
0
 13
0.143697000098579
 23
0.575164950239189
 33
0
  0
SOLID
  8
0
 62
8
 10
0.160737578354734
 20
0.613909769950112
 30
0
 11
0.143697000098579
 21
0.575164950239189
 31
0
 12
0.160737578354734
 22
0.613909769950112
 32
0
 13
0.170032439221728
 23
0.575164950239189
 33
0
  0
SOLID
  8
0
 62
8
 10
0.208761026167535
 20
0.607710598796364
 30
0
 11
0.160737578354734
 21
0.613909769950112
 31
0
 12
0.208761026167535
 22
0.607710598796364
 32
0
 13
0.170032439221728
 23
0.575164950239189
 33
0
  0
SOLID
  8
0
 62
8
 10
0.208761026167535
 20
0.607710598796364
 30
0
 11
0.170032439221728
 21
0.575164950239189
 31
0
 12
0.208761026167535
 22
0.607710598796364
 32
0
 13
0.202564452256205
 23
0.567415986297005
 33
0
  0
SOLID
  8
0
 62
8
 10
0.21960503051236
 20
0.615459562738549
 30
0
 11
0.208761026167535
 21
0.607710598796364
 31
0
 12
0.21960503051236
 22
0.615459562738549
 32
0
 13
0.202564452256205
 23
0.567415986297005
 33
0
  0
SOLID
  8
0
 62
8
 10
0.21960503051236
 20
0.615459562738549
 30
0
 11
0.202564452256205
 21
0.567415986297005
 31
0
 12
0.21960503051236
 22
0.615459562738549
 32
0
 13
0.236645608768515
 23
0.564316400720131
 33
0
  0
SOLID
  8
0
 62
8
 10
0.21960503051236
 20
0.615459562738549
 30
0
 11
0.236645608768515
 21
0.564316400720131
 31
0
 12
0.21960503051236
 22
0.615459562738549
 32
0
 13
0.258333617458167
 23
0.589113085335122
 33
0
  0
SOLID
  8
0
 62
8
 10
0.140598713142915
 20
0.651104796872597
 30
0
 11
0.145246143576412
 21
0.665052931968529
 31
0
 12
0.140598713142915
 22
0.651104796872597
 32
0
 13
0.146795287054244
 23
0.671252103122277
 33
0
  0
SOLID
  8
0
 62
8
 10
0.108066700108437
 20
0.655754175237908
 30
0
 11
0.104968413152773
 21
0.641806040141976
 31
0
 12
0.108066700108437
 22
0.655754175237908
 32
0
 13
0.120459847931095
 23
0.635606868988228
 33
0
  0
SOLID
  8
0
 62
8
 10
0.120459847931095
 20
0.635606868988228
 30
0
 11
0.134402139231586
 21
0.638706454565102
 31
0
 12
0.120459847931095
 22
0.635606868988228
 32
0
 13
0.140598713142915
 23
0.651104796872597
 33
0
  0
SOLID
  8
0
 62
8
 10
0.129754708798089
 20
0.699148373314141
 30
0
 11
0.114263274019766
 21
0.697598580525704
 31
0
 12
0.129754708798089
 22
0.699148373314141
 32
0
 13
0.104968413152773
 23
0.685200238218209
 33
0
  0
SOLID
  8
0
 62
8
 10
0.104968413152773
 20
0.685200238218209
 30
0
 11
0.104968413152773
 21
0.66970231033384
 31
0
 12
0.104968413152773
 22
0.685200238218209
 32
0
 13
0.108066700108437
 23
0.655754175237908
 33
0
  0
SOLID
  8
0
 62
8
 10
0.146795287054244
 20
0.671252103122277
 30
0
 11
0.148344430532076
 21
0.674351688699151
 31
0
 12
0.146795287054244
 22
0.671252103122277
 32
0
 13
0.129754708798089
 23
0.699148373314141
 33
0
  0
SOLID
  8
0
 62
8
 10
0.108066700108437
 20
0.655754175237908
 30
0
 11
0.120459847931095
 21
0.635606868988228
 31
0
 12
0.108066700108437
 22
0.655754175237908
 32
0
 13
0.140598713142915
 23
0.651104796872597
 33
0
  0
SOLID
  8
0
 62
8
 10
0.108066700108437
 20
0.655754175237908
 30
0
 11
0.140598713142915
 21
0.651104796872597
 31
0
 12
0.108066700108437
 22
0.655754175237908
 32
0
 13
0.146795287054244
 23
0.671252103122277
 33
0
  0
SOLID
  8
0
 62
8
 10
0.146795287054244
 20
0.671252103122277
 30
0
 11
0.129754708798089
 21
0.699148373314141
 31
0
 12
0.146795287054244
 22
0.671252103122277
 32
0
 13
0.104968413152773
 23
0.685200238218209
 33
0
  0
SOLID
  8
0
 62
8
 10
0.108066700108437
 20
0.655754175237908
 30
0
 11
0.146795287054244
 21
0.671252103122277
 31
0
 12
0.108066700108437
 22
0.655754175237908
 32
0
 13
0.104968413152773
 23
0.685200238218209
 33
0
  0
SOLID
  8
0
 62
8
 10
5.07483914286437E-02
 20
0.888223093503443
 30
0
 11
5.69449653399727E-02
 21
0.89442226465719
 31
0
 12
5.07483914286437E-02
 22
0.888223093503443
 32
0
 13
6.15923957734695E-02
 23
0.900621435810938
 33
0
  0
SOLID
  8
0
 62
8
 10
6.00432522956372E-02
 20
0.993609003117152
 30
0
 11
4.91992479508114E-02
 21
0.992059210328715
 31
0
 12
6.00432522956372E-02
 22
0.993609003117152
 32
0
 13
4.14535305616501E-02
 23
0.987409831963404
 33
0
  0
SOLID
  8
0
 62
8
 10
7.55346870739599E-02
 20
0.976561282444346
 30
0
 11
7.55346870739599E-02
 21
0.98431024638653
 31
0
 12
7.55346870739599E-02
 22
0.976561282444346
 32
0
 13
6.00432522956372E-02
 23
0.993609003117152
 33
0
  0
SOLID
  8
0
 62
8
 10
6.00432522956372E-02
 20
0.674351688699151
 30
0
 11
7.08872566404631E-02
 21
0.671252103122277
 31
0
 12
6.00432522956372E-02
 22
0.674351688699151
 32
0
 13
8.32804044631212E-02
 23
0.674351688699151
 33
0
  0
SOLID
  8
0
 62
8
 10
1.66672349163339E-02
 20
0.840179517061899
 30
0
 11
1.97655218719984E-02
 21
0.827781174754404
 31
0
 12
1.66672349163339E-02
 22
0.840179517061899
 32
0
 13
2.59620957833274E-02
 23
0.818482418023782
 33
0
  0
SOLID
  8
0
 62
8
 10
8.32804044631212E-02
 20
0.692949202160394
 30
0
 11
7.70838305517921E-02
 21
0.706897337256326
 31
0
 12
8.32804044631212E-02
 22
0.692949202160394
 32
0
 13
7.08872566404631E-02
 23
0.713096508410073
 33
0
  0
SOLID
  8
0
 62
8
 10
7.08872566404631E-02
 20
0.713096508410073
 30
0
 11
0.064690682729134
 21
0.723945057929132
 31
0
 12
7.08872566404631E-02
 22
0.713096508410073
 32
0
 13
0.058494108817805
 23
0.733243814659753
 33
0
  0
SOLID
  8
0
 62
8
 10
1.97655218719984E-02
 20
0.880474129561258
 30
0
 11
1.04706610050048E-02
 21
0.871175372830637
 31
0
 12
1.97655218719984E-02
 22
0.880474129561258
 32
0
 13
1.04706610050048E-02
 23
0.857227237734705
 33
0
  0
SOLID
  8
0
 62
8
 10
4.14535305616501E-02
 20
0.987409831963404
 30
0
 11
0.035256956650321
 21
0.976561282444346
 31
0
 12
4.14535305616501E-02
 22
0.987409831963404
 32
0
 13
3.68061001281533E-02
 23
0.962613147348414
 33
0
  0
SOLID
  8
0
 62
8
 10
0.058494108817805
 20
0.758040499274743
 30
0
 11
6.00432522956372E-02
 21
0.767339256005365
 31
0
 12
0.058494108817805
 22
0.758040499274743
 32
0
 13
6.15923957734695E-02
 23
0.785936769466608
 33
0
  0
SOLID
  8
0
 62
8
 10
3.68061001281533E-02
 20
0.945565426675608
 30
0
 11
1.97655218719984E-02
 21
0.957963768983103
 31
0
 12
3.68061001281533E-02
 22
0.945565426675608
 32
0
 13
1.04706610050048E-02
 23
0.956413976194666
 33
0
  0
SOLID
  8
0
 62
8
 10
6.00432522956372E-02
 20
0.674351688699151
 30
0
 11
8.32804044631212E-02
 21
0.674351688699151
 31
0
 12
6.00432522956372E-02
 22
0.674351688699151
 32
0
 13
8.32804044631212E-02
 23
0.692949202160394
 33
0
  0
SOLID
  8
0
 62
8
 10
2.59620957833274E-02
 20
0.765789463216928
 30
0
 11
2.28638088276629E-02
 21
0.748741742544122
 31
0
 12
2.59620957833274E-02
 22
0.765789463216928
 32
0
 13
2.59620957833274E-02
 23
0.733243814659753
 33
0
  0
SOLID
  8
0
 62
8
 10
3.37078131724888E-02
 20
0.69449899494883
 30
0
 11
4.45518175173146E-02
 21
0.682100652641335
 31
0
 12
3.37078131724888E-02
 22
0.69449899494883
 32
0
 13
6.00432522956372E-02
 23
0.674351688699151
 33
0
  0
SOLID
  8
0
 62
8
 10
6.15923957734695E-02
 20
0.809183661293161
 30
0
 11
5.53958218621404E-02
 21
0.827781174754404
 31
0
 12
6.15923957734695E-02
 22
0.809183661293161
 32
0
 13
4.91992479508114E-02
 23
0.841729309850336
 33
0
  0
SOLID
  8
0
 62
8
 10
4.14535305616501E-02
 20
0.987409831963404
 30
0
 11
3.68061001281533E-02
 21
0.962613147348414
 31
0
 12
4.14535305616501E-02
 22
0.987409831963404
 32
0
 13
4.14535305616501E-02
 23
0.951764597829356
 33
0
  0
SOLID
  8
0
 62
8
 10
7.55346870739599E-02
 20
0.976561282444346
 30
0
 11
6.00432522956372E-02
 21
0.993609003117152
 31
0
 12
7.55346870739599E-02
 22
0.976561282444346
 32
0
 13
4.14535305616501E-02
 23
0.987409831963404
 33
0
  0
SOLID
  8
0
 62
8
 10
1.04706610050048E-02
 20
0.956413976194666
 30
0
 11
0
 21
0.96
 31
0
 12
1.04706610050048E-02
 22
0.956413976194666
 32
0
 13
0
 23
0.92
 33
0
  0
SOLID
  8
0
 62
8
 10
2.59620957833274E-02
 20
0.733243814659753
 30
0
 11
2.75112392611597E-02
 21
0.713096508410073
 31
0
 12
2.59620957833274E-02
 22
0.733243814659753
 32
0
 13
3.37078131724888E-02
 23
0.69449899494883
 33
0
  0
SOLID
  8
0
 62
8
 10
6.00432522956372E-02
 20
0.674351688699151
 30
0
 11
8.32804044631212E-02
 21
0.692949202160394
 31
0
 12
6.00432522956372E-02
 22
0.674351688699151
 32
0
 13
7.08872566404631E-02
 23
0.713096508410073
 33
0
  0
SOLID
  8
0
 62
8
 10
1.97655218719984E-02
 20
0.880474129561258
 30
0
 11
1.04706610050048E-02
 21
0.857227237734705
 31
0
 12
1.97655218719984E-02
 22
0.880474129561258
 32
0
 13
1.66672349163339E-02
 23
0.840179517061899
 33
0
  0
SOLID
  8
0
 62
8
 10
3.37078131724888E-02
 20
0.69449899494883
 30
0
 11
6.00432522956372E-02
 21
0.674351688699151
 31
0
 12
3.37078131724888E-02
 22
0.69449899494883
 32
0
 13
7.08872566404631E-02
 23
0.713096508410073
 33
0
  0
SOLID
  8
0
 62
8
 10
7.55346870739599E-02
 20
0.976561282444346
 30
0
 11
4.14535305616501E-02
 21
0.987409831963404
 31
0
 12
7.55346870739599E-02
 22
0.976561282444346
 32
0
 13
4.14535305616501E-02
 23
0.951764597829356
 33
0
  0
SOLID
  8
0
 62
8
 10
7.08872566404631E-02
 20
0.956413976194666
 30
0
 11
7.55346870739599E-02
 21
0.976561282444346
 31
0
 12
7.08872566404631E-02
 22
0.956413976194666
 32
0
 13
4.14535305616501E-02
 23
0.951764597829356
 33
0
  0
SOLID
  8
0
 62
8
 10
6.62398262069663E-02
 20
0.93471687715655
 30
0
 11
7.08872566404631E-02
 21
0.956413976194666
 31
0
 12
6.62398262069663E-02
 22
0.93471687715655
 32
0
 13
4.14535305616501E-02
 23
0.951764597829356
 33
0
  0
SOLID
  8
0
 62
8
 10
6.62398262069663E-02
 20
0.93471687715655
 30
0
 11
4.14535305616501E-02
 21
0.951764597829356
 31
0
 12
6.62398262069663E-02
 22
0.93471687715655
 32
0
 13
4.14535305616501E-02
 23
0.945565426675608
 33
0
  0
SOLID
  8
0
 62
8
 10
6.62398262069663E-02
 20
0.93471687715655
 30
0
 11
4.14535305616501E-02
 21
0.945565426675608
 31
0
 12
6.62398262069663E-02
 22
0.93471687715655
 32
0
 13
3.68061001281533E-02
 23
0.945565426675608
 33
0
  0
SOLID
  8
0
 62
8
 10
1.04706610050048E-02
 20
0.956413976194666
 30
0
 11
0
 21
0.92
 31
0
 12
1.04706610050048E-02
 22
0.956413976194666
 32
0
 13
1.66672349163339E-02
 23
0.91456957090687
 33
0
  0
SOLID
  8
0
 62
8
 10
3.68061001281533E-02
 20
0.945565426675608
 30
0
 11
1.04706610050048E-02
 21
0.956413976194666
 31
0
 12
3.68061001281533E-02
 22
0.945565426675608
 32
0
 13
1.66672349163339E-02
 23
0.91456957090687
 33
0
  0
SOLID
  8
0
 62
8
 10
3.68061001281533E-02
 20
0.945565426675608
 30
0
 11
1.66672349163339E-02
 21
0.91456957090687
 31
0
 12
3.68061001281533E-02
 22
0.945565426675608
 32
0
 13
2.59620957833274E-02
 23
0.905270814176249
 33
0
  0
SOLID
  8
0
 62
8
 10
3.37078131724888E-02
 20
0.69449899494883
 30
0
 11
7.08872566404631E-02
 21
0.713096508410073
 31
0
 12
3.37078131724888E-02
 22
0.69449899494883
 32
0
 13
0.058494108817805
 23
0.733243814659753
 33
0
  0
SOLID
  8
0
 62
8
 10
2.59620957833274E-02
 20
0.733243814659753
 30
0
 11
3.37078131724888E-02
 21
0.69449899494883
 31
0
 12
2.59620957833274E-02
 22
0.733243814659753
 32
0
 13
0.058494108817805
 23
0.733243814659753
 33
0
  0
SOLID
  8
0
 62
8
 10
2.59620957833274E-02
 20
0.733243814659753
 30
0
 11
0.058494108817805
 21
0.733243814659753
 31
0
 12
2.59620957833274E-02
 22
0.733243814659753
 32
0
 13
0.058494108817805
 23
0.758040499274743
 33
0
  0
SOLID
  8
0
 62
8
 10
2.59620957833274E-02
 20
0.765789463216928
 30
0
 11
2.59620957833274E-02
 21
0.733243814659753
 31
0
 12
2.59620957833274E-02
 22
0.765789463216928
 32
0
 13
0.058494108817805
 23
0.758040499274743
 33
0
  0
SOLID
  8
0
 62
8
 10
2.59620957833274E-02
 20
0.765789463216928
 30
0
 11
0.058494108817805
 21
0.758040499274743
 31
0
 12
2.59620957833274E-02
 22
0.765789463216928
 32
0
 13
6.15923957734695E-02
 23
0.785936769466608
 33
0
  0
SOLID
  8
0
 62
8
 10
0.029060382738992
 20
0.792135940620355
 30
0
 11
2.59620957833274E-02
 21
0.765789463216928
 31
0
 12
0.029060382738992
 22
0.792135940620355
 32
0
 13
6.15923957734695E-02
 23
0.785936769466608
 33
0
  0
SOLID
  8
0
 62
8
 10
0.029060382738992
 20
0.792135940620355
 30
0
 11
6.15923957734695E-02
 21
0.785936769466608
 31
0
 12
0.029060382738992
 22
0.792135940620355
 32
0
 13
6.15923957734695E-02
 23
0.809183661293161
 33
0
  0
SOLID
  8
0
 62
8
 10
0.029060382738992
 20
0.80453428292785
 30
0
 11
0.029060382738992
 21
0.792135940620355
 31
0
 12
0.029060382738992
 22
0.80453428292785
 32
0
 13
6.15923957734695E-02
 23
0.809183661293161
 33
0
  0
SOLID
  8
0
 62
8
 10
2.59620957833274E-02
 20
0.818482418023782
 30
0
 11
0.029060382738992
 21
0.80453428292785
 31
0
 12
2.59620957833274E-02
 22
0.818482418023782
 32
0
 13
6.15923957734695E-02
 23
0.809183661293161
 33
0
  0
SOLID
  8
0
 62
8
 10
2.59620957833274E-02
 20
0.818482418023782
 30
0
 11
6.15923957734695E-02
 21
0.809183661293161
 31
0
 12
2.59620957833274E-02
 22
0.818482418023782
 32
0
 13
4.91992479508114E-02
 23
0.841729309850336
 33
0
  0
SOLID
  8
0
 62
8
 10
1.66672349163339E-02
 20
0.840179517061899
 30
0
 11
2.59620957833274E-02
 21
0.818482418023782
 31
0
 12
1.66672349163339E-02
 22
0.840179517061899
 32
0
 13
4.91992479508114E-02
 23
0.841729309850336
 33
0
  0
SOLID
  8
0
 62
8
 10
1.66672349163339E-02
 20
0.840179517061899
 30
0
 11
4.91992479508114E-02
 21
0.841729309850336
 31
0
 12
1.66672349163339E-02
 22
0.840179517061899
 32
0
 13
4.61009609951469E-02
 23
0.852577859369394
 33
0
  0
SOLID
  8
0
 62
8
 10
1.97655218719984E-02
 20
0.880474129561258
 30
0
 11
1.66672349163339E-02
 21
0.840179517061899
 31
0
 12
1.97655218719984E-02
 22
0.880474129561258
 32
0
 13
4.61009609951469E-02
 23
0.852577859369394
 33
0
  0
SOLID
  8
0
 62
8
 10
1.97655218719984E-02
 20
0.880474129561258
 30
0
 11
4.61009609951469E-02
 21
0.852577859369394
 31
0
 12
1.97655218719984E-02
 22
0.880474129561258
 32
0
 13
4.61009609951469E-02
 23
0.877374543984385
 33
0
  0
SOLID
  8
0
 62
8
 10
2.28638088276629E-02
 20
0.88977288629188
 30
0
 11
1.97655218719984E-02
 21
0.880474129561258
 31
0
 12
2.28638088276629E-02
 22
0.88977288629188
 32
0
 13
4.61009609951469E-02
 23
0.877374543984385
 33
0
  0
SOLID
  8
0
 62
8
 10
2.28638088276629E-02
 20
0.88977288629188
 30
0
 11
4.61009609951469E-02
 21
0.877374543984385
 31
0
 12
2.28638088276629E-02
 22
0.88977288629188
 32
0
 13
5.07483914286437E-02
 23
0.888223093503443
 33
0
  0
SOLID
  8
0
 62
8
 10
2.59620957833274E-02
 20
0.905270814176249
 30
0
 11
2.28638088276629E-02
 21
0.88977288629188
 31
0
 12
2.59620957833274E-02
 22
0.905270814176249
 32
0
 13
5.07483914286437E-02
 23
0.888223093503443
 33
0
  0
SOLID
  8
0
 62
8
 10
2.59620957833274E-02
 20
0.905270814176249
 30
0
 11
5.07483914286437E-02
 21
0.888223093503443
 31
0
 12
2.59620957833274E-02
 22
0.905270814176249
 32
0
 13
6.15923957734695E-02
 23
0.900621435810938
 33
0
  0
SOLID
  8
0
 62
8
 10
2.59620957833274E-02
 20
0.905270814176249
 30
0
 11
6.15923957734695E-02
 21
0.900621435810938
 31
0
 12
2.59620957833274E-02
 22
0.905270814176249
 32
0
 13
6.62398262069663E-02
 23
0.93471687715655
 33
0
  0
SOLID
  8
0
 62
8
 10
2.59620957833274E-02
 20
0.905270814176249
 30
0
 11
6.62398262069663E-02
 21
0.93471687715655
 31
0
 12
2.59620957833274E-02
 22
0.905270814176249
 32
0
 13
3.68061001281533E-02
 23
0.945565426675608
 33
0
  0
SOLID
  8
0
 62
8
 10
0.105184071173511
 20
0.73776332094176
 30
0
 11
0.12066704877455
 21
0.728469640644362
 31
0
 12
0.105184071173511
 22
0.73776332094176
 32
0
 13
0.129956835335173
 23
0.742410161090459
 33
0
  0
SOLID
  8
0
 62
8
 10
0.137698324135692
 20
0.976301115241636
 30
0
 11
0.16
 21
1
 31
0
 12
0.137698324135692
 22
0.976301115241636
 32
0
 13
0.12
 23
1
 33
0
  0
SOLID
  8
0
 62
8
 10
0.162471088297354
 20
0.860130111524164
 30
0
 11
0.164019386057458
 21
0.880266418835192
 31
0
 12
0.162471088297354
 22
0.860130111524164
 32
0
 13
0.139246621895796
 23
0.884913258983891
 33
0
  0
SOLID
  8
0
 62
8
 10
0.131505133095277
 20
0.857032218091698
 30
0
 11
0.162471088297354
 21
0.860130111524164
 31
0
 12
0.131505133095277
 22
0.857032218091698
 32
0
 13
0.139246621895796
 23
0.884913258983891
 33
0
  0
SOLID
  8
0
 62
8
 10
0.131505133095277
 20
0.857032218091698
 30
0
 11
0.139246621895796
 21
0.884913258983891
 31
0
 12
0.131505133095277
 22
0.857032218091698
 32
0
 13
0.126860239814965
 23
0.884913258983891
 33
0
  0
SOLID
  8
0
 62
8
 10
9.74425823729915E-02
 20
0.754801734820322
 30
0
 11
0.105184071173511
 21
0.73776332094176
 31
0
 12
9.74425823729915E-02
 22
0.754801734820322
 32
0
 13
0.129956835335173
 23
0.742410161090459
 33
0
  0
SOLID
  8
0
 62
8
 10
9.74425823729915E-02
 20
0.754801734820322
 30
0
 11
0.129956835335173
 21
0.742410161090459
 31
0
 12
9.74425823729915E-02
 22
0.754801734820322
 32
0
 13
0.123763644294757
 23
0.767193308550186
 33
0
  0
SOLID
  8
0
 62
8
 10
9.74425823729915E-02
 20
0.787329615861214
 30
0
 11
9.74425823729915E-02
 21
0.754801734820322
 31
0
 12
9.74425823729915E-02
 22
0.787329615861214
 32
0
 13
0.123763644294757
 23
0.767193308550186
 33
0
  0
SOLID
  8
0
 62
8
 10
9.74425823729915E-02
 20
0.787329615861214
 30
0
 11
0.123763644294757
 21
0.767193308550186
 31
0
 12
9.74425823729915E-02
 22
0.787329615861214
 32
0
 13
0.126860239814965
 23
0.804368029739777
 33
0
  0
SOLID
  8
0
 62
8
 10
9.12493913325759E-02
 20
0.818308550185874
 30
0
 11
9.74425823729915E-02
 21
0.787329615861214
 31
0
 12
9.12493913325759E-02
 22
0.818308550185874
 32
0
 13
0.126860239814965
 23
0.804368029739777
 33
0
  0
SOLID
  8
0
 62
8
 10
9.12493913325759E-02
 20
0.818308550185874
 30
0
 11
0.126860239814965
 21
0.804368029739777
 31
0
 12
9.12493913325759E-02
 22
0.818308550185874
 32
0
 13
0.114473857734134
 23
0.829151177199504
 33
0
  0
SOLID
  8
0
 62
8
 10
8.66044980522643E-02
 20
0.846189591078067
 30
0
 11
9.12493913325759E-02
 21
0.818308550185874
 31
0
 12
8.66044980522643E-02
 22
0.846189591078067
 32
0
 13
0.114473857734134
 23
0.829151177199504
 33
0
  0
SOLID
  8
0
 62
8
 10
0.173309172618082
 20
0.962360594795539
 30
0
 11
0.145439812936212
 21
0.965458488228005
 31
0
 12
0.173309172618082
 22
0.962360594795539
 32
0
 13
0.131505133095277
 23
0.954615861214374
 33
0
  0
SOLID
  8
0
 62
8
 10
0.137698324135692
 20
0.976301115241636
 30
0
 11
0.12
 21
1
 31
0
 12
0.137698324135692
 22
0.976301115241636
 32
0
 13
9.89908801330953E-02
 23
0.956164807930607
 33
0
  0
SOLID
  8
0
 62
8
 10
0.131505133095277
 20
0.954615861214374
 30
0
 11
0.137698324135692
 21
0.976301115241636
 31
0
 12
0.131505133095277
 22
0.954615861214374
 32
0
 13
9.89908801330953E-02
 23
0.956164807930607
 33
0
  0
SOLID
  8
0
 62
8
 10
0.131505133095277
 20
0.954615861214374
 30
0
 11
9.89908801330953E-02
 21
0.956164807930607
 31
0
 12
0.131505133095277
 22
0.954615861214374
 32
0
 13
0.108280666693719
 23
0.923636926889715
 33
0
  0
SOLID
  8
0
 62
8
 10
0.19653363901964
 20
0.929832713754647
 30
0
 11
0.235241083022237
 21
0.946871127633209
 31
0
 12
0.19653363901964
 22
0.929832713754647
 32
0
 13
0.22440299870151
 23
0.965458488228005
 33
0
  0
SOLID
  8
0
 62
8
 10
0.19653363901964
 20
0.929832713754647
 30
0
 11
0.22440299870151
 21
0.965458488228005
 31
0
 12
0.19653363901964
 22
0.929832713754647
 32
0
 13
0.193437043499432
 23
0.970105328376704
 33
0
  0
SOLID
  8
0
 62
8
 10
0.19653363901964
 20
0.929832713754647
 30
0
 11
0.193437043499432
 21
0.970105328376704
 31
0
 12
0.19653363901964
 22
0.929832713754647
 32
0
 13
0.173309172618082
 23
0.962360594795539
 33
0
  0
SOLID
  8
0
 62
8
 10
0.154729599496835
 20
0.936028500619579
 30
0
 11
0.19653363901964
 21
0.929832713754647
 31
0
 12
0.154729599496835
 22
0.936028500619579
 32
0
 13
0.173309172618082
 23
0.962360594795539
 33
0
  0
SOLID
  8
0
 62
8
 10
0.154729599496835
 20
0.936028500619579
 30
0
 11
0.173309172618082
 21
0.962360594795539
 31
0
 12
0.154729599496835
 22
0.936028500619579
 32
0
 13
0.131505133095277
 23
0.954615861214374
 33
0
  0
SOLID
  8
0
 62
8
 10
0.131505133095277
 20
0.914343246592317
 30
0
 11
0.154729599496835
 21
0.936028500619579
 31
0
 12
0.131505133095277
 22
0.914343246592317
 32
0
 13
0.131505133095277
 23
0.954615861214374
 33
0
  0
SOLID
  8
0
 62
8
 10
0.131505133095277
 20
0.914343246592317
 30
0
 11
0.131505133095277
 21
0.954615861214374
 31
0
 12
0.131505133095277
 22
0.914343246592317
 32
0
 13
0.108280666693719
 23
0.923636926889715
 33
0
  0
SOLID
  8
0
 62
8
 10
0.126860239814965
 20
0.884913258983891
 30
0
 11
0.131505133095277
 21
0.914343246592317
 31
0
 12
0.126860239814965
 22
0.884913258983891
 32
0
 13
0.108280666693719
 23
0.923636926889715
 33
0
  0
SOLID
  8
0
 62
8
 10
0.126860239814965
 20
0.884913258983891
 30
0
 11
0.108280666693719
 21
0.923636926889715
 31
0
 12
0.126860239814965
 22
0.884913258983891
 32
0
 13
9.58942846128876E-02
 23
0.881815365551425
 33
0
  0
SOLID
  8
0
 62
8
 10
0.131505133095277
 20
0.857032218091698
 30
0
 11
0.126860239814965
 21
0.884913258983891
 31
0
 12
0.131505133095277
 22
0.857032218091698
 32
0
 13
9.58942846128876E-02
 23
0.881815365551425
 33
0
  0
SOLID
  8
0
 62
8
 10
8.66044980522643E-02
 20
0.846189591078067
 30
0
 11
0.114473857734134
 21
0.829151177199504
 31
0
 12
8.66044980522643E-02
 22
0.846189591078067
 32
0
 13
0.131505133095277
 23
0.857032218091698
 33
0
  0
SOLID
  8
0
 62
8
 10
8.66044980522643E-02
 20
0.846189591078067
 30
0
 11
0.131505133095277
 21
0.857032218091698
 31
0
 12
8.66044980522643E-02
 22
0.846189591078067
 32
0
 13
9.58942846128876E-02
 23
0.881815365551425
 33
0
  0
SOLID
  8
0
 62
8
 10
0.201015308778373
 20
0.806084075716287
 30
0
 11
0.213408456601031
 21
0.812283246870035
 31
0
 12
0.201015308778373
 22
0.806084075716287
 32
0
 13
0.214957600078864
 23
0.82468158917753
 33
0
  0
SOLID
  8
0
 62
8
 10
0.152991860965573
 20
0.778187805524423
 30
0
 11
0.152991860965573
 21
0.762689877640054
 31
0
 12
0.152991860965573
 22
0.778187805524423
 32
0
 13
0.17158158269956
 23
0.762689877640054
 33
0
  0
SOLID
  8
0
 62
8
 10
0.152991860965573
 20
0.778187805524423
 30
0
 11
0.17158158269956
 21
0.762689877640054
 31
0
 12
0.152991860965573
 22
0.778187805524423
 32
0
 13
0.176229013133057
 23
0.773538427159112
 33
0
  0
SOLID
  8
0
 62
8
 10
0.165385008788231
 20
0.838629724273462
 30
0
 11
0.162286721832567
 21
0.837079931485025
 31
0
 12
0.165385008788231
 22
0.838629724273462
 32
0
 13
0.148344430532076
 23
0.820032210812219
 33
0
  0
SOLID
  8
0
 62
8
 10
0.151442717487741
 20
0.792135940620355
 30
0
 11
0.152991860965573
 21
0.778187805524423
 31
0
 12
0.151442717487741
 22
0.792135940620355
 32
0
 13
0.176229013133057
 23
0.773538427159112
 33
0
  0
SOLID
  8
0
 62
8
 10
0.193269591389212
 20
0.852577859369394
 30
0
 11
0.179327300088721
 21
0.846378688215647
 31
0
 12
0.193269591389212
 22
0.852577859369394
 32
0
 13
0.165385008788231
 23
0.838629724273462
 33
0
  0
SOLID
  8
0
 62
8
 10
0.224252460945857
 20
0.905270814176249
 30
0
 11
0.20566273921187
 21
0.902171228599375
 31
0
 12
0.224252460945857
 22
0.905270814176249
 32
0
 13
0.197917021822709
 23
0.886673300715006
 33
0
  0
SOLID
  8
0
 62
8
 10
0.151442717487741
 20
0.792135940620355
 30
0
 11
0.176229013133057
 21
0.773538427159112
 31
0
 12
0.151442717487741
 22
0.792135940620355
 32
0
 13
0.183974730522218
 23
0.793685733408792
 33
0
  0
SOLID
  8
0
 62
8
 10
0.275374195714322
 20
0.88977288629188
 30
0
 11
0.280021626147819
 21
0.911469985329996
 31
0
 12
0.275374195714322
 22
0.88977288629188
 32
0
 13
0.267628478325161
 23
0.922318534849054
 33
0
  0
SOLID
  8
0
 62
8
 10
0.242842182679844
 20
0.877374543984385
 30
0
 11
0.261431904413831
 21
0.880474129561258
 31
0
 12
0.242842182679844
 22
0.877374543984385
 32
0
 13
0.275374195714322
 23
0.88977288629188
 33
0
  0
SOLID
  8
0
 62
8
 10
0.267628478325161
 20
0.922318534849054
 30
0
 11
0.242842182679844
 21
0.917669156483744
 31
0
 12
0.267628478325161
 22
0.922318534849054
 32
0
 13
0.233547321812851
 23
0.909920192541559
 33
0
  0
SOLID
  8
0
 62
8
 10
0.201015308778373
 20
0.806084075716287
 30
0
 11
0.214957600078864
 21
0.82468158917753
 31
0
 12
0.201015308778373
 22
0.806084075716287
 32
0
 13
0.221154173990193
 23
0.843279102638773
 33
0
  0
SOLID
  8
0
 62
8
 10
0.233547321812851
 20
0.909920192541559
 30
0
 11
0.224252460945857
 21
0.905270814176249
 31
0
 12
0.233547321812851
 22
0.909920192541559
 32
0
 13
0.197917021822709
 23
0.886673300715006
 33
0
  0
SOLID
  8
0
 62
8
 10
0.148344430532076
 20
0.820032210812219
 30
0
 11
0.151442717487741
 21
0.792135940620355
 31
0
 12
0.148344430532076
 22
0.820032210812219
 32
0
 13
0.183974730522218
 23
0.793685733408792
 33
0
  0
SOLID
  8
0
 62
8
 10
0.275374195714322
 20
0.88977288629188
 30
0
 11
0.267628478325161
 21
0.922318534849054
 31
0
 12
0.275374195714322
 22
0.88977288629188
 32
0
 13
0.233547321812851
 23
0.909920192541559
 33
0
  0
SOLID
  8
0
 62
8
 10
0.242842182679844
 20
0.877374543984385
 30
0
 11
0.275374195714322
 21
0.88977288629188
 31
0
 12
0.242842182679844
 22
0.877374543984385
 32
0
 13
0.233547321812851
 23
0.909920192541559
 33
0
  0
SOLID
  8
0
 62
8
 10
0.233547321812851
 20
0.868075787253763
 30
0
 11
0.242842182679844
 21
0.877374543984385
 31
0
 12
0.233547321812851
 22
0.868075787253763
 32
0
 13
0.233547321812851
 23
0.909920192541559
 33
0
  0
SOLID
  8
0
 62
8
 10
0.233547321812851
 20
0.868075787253763
 30
0
 11
0.233547321812851
 21
0.909920192541559
 31
0
 12
0.233547321812851
 22
0.868075787253763
 32
0
 13
0.197917021822709
 23
0.886673300715006
 33
0
  0
SOLID
  8
0
 62
8
 10
0.233547321812851
 20
0.868075787253763
 30
0
 11
0.197917021822709
 21
0.886673300715006
 31
0
 12
0.233547321812851
 22
0.868075787253763
 32
0
 13
0.199466165300541
 23
0.864976201676889
 33
0
  0
SOLID
  8
0
 62
8
 10
0.221154173990193
 20
0.843279102638773
 30
0
 11
0.233547321812851
 21
0.868075787253763
 31
0
 12
0.221154173990193
 22
0.843279102638773
 32
0
 13
0.199466165300541
 23
0.864976201676889
 33
0
  0
SOLID
  8
0
 62
8
 10
0.221154173990193
 20
0.843279102638773
 30
0
 11
0.199466165300541
 21
0.864976201676889
 31
0
 12
0.221154173990193
 22
0.843279102638773
 32
0
 13
0.193269591389212
 23
0.852577859369394
 33
0
  0
SOLID
  8
0
 62
8
 10
0.201015308778373
 20
0.806084075716287
 30
0
 11
0.221154173990193
 21
0.843279102638773
 31
0
 12
0.201015308778373
 22
0.806084075716287
 32
0
 13
0.193269591389212
 23
0.852577859369394
 33
0
  0
SOLID
  8
0
 62
8
 10
0.201015308778373
 20
0.806084075716287
 30
0
 11
0.193269591389212
 21
0.852577859369394
 31
0
 12
0.201015308778373
 22
0.806084075716287
 32
0
 13
0.165385008788231
 23
0.838629724273462
 33
0
  0
SOLID
  8
0
 62
8
 10
0.183974730522218
 20
0.793685733408792
 30
0
 11
0.201015308778373
 21
0.806084075716287
 31
0
 12
0.183974730522218
 22
0.793685733408792
 32
0
 13
0.165385008788231
 23
0.838629724273462
 33
0
  0
SOLID
  8
0
 62
8
 10
0.148344430532076
 20
0.820032210812219
 30
0
 11
0.183974730522218
 21
0.793685733408792
 31
0
 12
0.148344430532076
 22
0.820032210812219
 32
0
 13
0.165385008788231
 23
0.838629724273462
 33
0
  0
SOLID
  8
0
 62
8
 10
0.38381423916258
 20
0.968812318502161
 30
0
 11
0.377617665251251
 21
0.981210660809657
 31
0
 12
0.38381423916258
 22
0.968812318502161
 32
0
 13
0.366773660906425
 23
0.981210660809657
 33
0
  0
SOLID
  8
0
 62
8
 10
0.337339934827612
 20
0.990509417540278
 30
0
 11
0.329594217438451
 21
0.990509417540278
 31
0
 12
0.337339934827612
 22
0.990509417540278
 32
0
 13
0.315651926137961
 23
0.988959624751841
 33
0
  0
SOLID
  8
0
 62
8
 10
0.258333617458167
 20
0.981210660809657
 30
0
 11
0.252137043546838
 21
0.975011489655909
 31
0
 12
0.258333617458167
 22
0.981210660809657
 32
0
 13
0.255235330502502
 23
0.957963768983103
 33
0
  0
SOLID
  8
0
 62
8
 10
0.38381423916258
 20
0.944015633887171
 30
0
 11
0.386912526118245
 21
0.957963768983103
 31
0
 12
0.38381423916258
 22
0.944015633887171
 32
0
 13
0.38381423916258
 23
0.968812318502161
 33
0
  0
SOLID
  8
0
 62
8
 10
0.286218200059148
 20
0.953314390617792
 30
0
 11
0.30170963483747
 21
0.956413976194666
 31
0
 12
0.286218200059148
 22
0.953314390617792
 32
0
 13
0.312553639182296
 23
0.95951356177154
 33
0
  0
SOLID
  8
0
 62
8
 10
0.258333617458167
 20
0.981210660809657
 30
0
 11
0.255235330502502
 21
0.957963768983103
 31
0
 12
0.258333617458167
 22
0.981210660809657
 32
0
 13
0.261431904413831
 23
0.953314390617792
 33
0
  0
SOLID
  8
0
 62
8
 10
0.366773660906425
 20
0.942465841098734
 30
0
 11
0.38381423916258
 21
0.944015633887171
 31
0
 12
0.366773660906425
 22
0.942465841098734
 32
0
 13
0.38381423916258
 23
0.968812318502161
 33
0
  0
SOLID
  8
0
 62
8
 10
0.315651926137961
 20
0.988959624751841
 30
0
 11
0.300160491359638
 21
0.988959624751841
 31
0
 12
0.315651926137961
 22
0.988959624751841
 32
0
 13
0.281570769625651
 23
0.987409831963404
 33
0
  0
SOLID
  8
0
 62
8
 10
0.352831369605935
 20
0.951764597829356
 30
0
 11
0.366773660906425
 21
0.942465841098734
 31
0
 12
0.352831369605935
 22
0.951764597829356
 32
0
 13
0.38381423916258
 23
0.968812318502161
 33
0
  0
SOLID
  8
0
 62
8
 10
0.352831369605935
 20
0.951764597829356
 30
0
 11
0.38381423916258
 21
0.968812318502161
 31
0
 12
0.352831369605935
 22
0.951764597829356
 32
0
 13
0.366773660906425
 23
0.981210660809657
 33
0
  0
SOLID
  8
0
 62
8
 10
0.341987365261109
 20
0.957963768983103
 30
0
 11
0.352831369605935
 21
0.951764597829356
 31
0
 12
0.341987365261109
 22
0.957963768983103
 32
0
 13
0.366773660906425
 23
0.981210660809657
 33
0
  0
SOLID
  8
0
 62
8
 10
0.341987365261109
 20
0.957963768983103
 30
0
 11
0.366773660906425
 21
0.981210660809657
 31
0
 12
0.341987365261109
 22
0.957963768983103
 32
0
 13
0.337339934827612
 23
0.990509417540278
 33
0
  0
SOLID
  8
0
 62
8
 10
0.258333617458167
 20
0.981210660809657
 30
0
 11
0.261431904413831
 21
0.953314390617792
 31
0
 12
0.258333617458167
 22
0.981210660809657
 32
0
 13
0.286218200059148
 23
0.953314390617792
 33
0
  0
SOLID
  8
0
 62
8
 10
0.281570769625651
 20
0.987409831963404
 30
0
 11
0.258333617458167
 21
0.981210660809657
 31
0
 12
0.281570769625651
 22
0.987409831963404
 32
0
 13
0.286218200059148
 23
0.953314390617792
 33
0
  0
SOLID
  8
0
 62
8
 10
0.312553639182296
 20
0.95951356177154
 30
0
 11
0.341987365261109
 21
0.957963768983103
 31
0
 12
0.312553639182296
 22
0.95951356177154
 32
0
 13
0.337339934827612
 23
0.990509417540278
 33
0
  0
SOLID
  8
0
 62
8
 10
0.312553639182296
 20
0.95951356177154
 30
0
 11
0.337339934827612
 21
0.990509417540278
 31
0
 12
0.312553639182296
 22
0.95951356177154
 32
0
 13
0.315651926137961
 23
0.988959624751841
 33
0
  0
SOLID
  8
0
 62
8
 10
0.312553639182296
 20
0.95951356177154
 30
0
 11
0.315651926137961
 21
0.988959624751841
 31
0
 12
0.312553639182296
 22
0.95951356177154
 32
0
 13
0.281570769625651
 23
0.987409831963404
 33
0
  0
SOLID
  8
0
 62
8
 10
0.312553639182296
 20
0.95951356177154
 30
0
 11
0.281570769625651
 21
0.987409831963404
 31
0
 12
0.312553639182296
 22
0.95951356177154
 32
0
 13
0.286218200059148
 23
0.953314390617792
 33
0
  0
SOLID
  8
0
 62
8
 10
0.183974730522218
 20
0.733243814659753
 30
0
 11
0.177778156610889
 21
0.722395265140695
 31
0
 12
0.183974730522218
 22
0.733243814659753
 32
0
 13
0.179327300088721
 23
0.71464630119851
 33
0
  0
SOLID
  8
0
 62
8
 10
0.255235330502502
 20
0.758040499274743
 30
0
 11
0.270726765280825
 21
0.758040499274743
 31
0
 12
0.255235330502502
 22
0.758040499274743
 32
0
 13
0.272275908758657
 23
0.771988634370675
 33
0
  0
SOLID
  8
0
 62
8
 10
0.211859313123199
 20
0.771988634370675
 30
0
 11
0.208761026167535
 21
0.762689877640054
 31
0
 12
0.211859313123199
 22
0.771988634370675
 32
0
 13
0.20566273921187
 23
0.750291535332559
 33
0
  0
SOLID
  8
0
 62
8
 10
0.245940469635509
 20
0.789036355043481
 30
0
 11
0.242842182679844
 21
0.789036355043481
 31
0
 12
0.245940469635509
 22
0.789036355043481
 32
0
 13
0.224252460945857
 23
0.77973759831286
 33
0
  0
SOLID
  8
0
 62
8
 10
0.183974730522218
 20
0.661953346391656
 30
0
 11
0.199466165300541
 21
0.649555004084161
 31
0
 12
0.183974730522218
 22
0.661953346391656
 32
0
 13
0.207211882689702
 23
0.652654589661034
 33
0
  0
SOLID
  8
0
 62
8
 10
0.20566273921187
 20
0.750291535332559
 30
0
 11
0.196367878344876
 21
0.744092364178811
 31
0
 12
0.20566273921187
 22
0.750291535332559
 32
0
 13
0.183974730522218
 23
0.733243814659753
 33
0
  0
SOLID
  8
0
 62
8
 10
0.214957600078864
 20
0.671252103122277
 30
0
 11
0.216506743556696
 21
0.688299823795083
 31
0
 12
0.214957600078864
 22
0.671252103122277
 32
0
 13
0.216506743556696
 23
0.702247958891015
 33
0
  0
SOLID
  8
0
 62
8
 10
0.183974730522218
 20
0.661953346391656
 30
0
 11
0.207211882689702
 21
0.652654589661034
 31
0
 12
0.183974730522218
 22
0.661953346391656
 32
0
 13
0.214957600078864
 23
0.671252103122277
 33
0
  0
SOLID
  8
0
 62
8
 10
0.255235330502502
 20
0.758040499274743
 30
0
 11
0.272275908758657
 21
0.771988634370675
 31
0
 12
0.255235330502502
 22
0.758040499274743
 32
0
 13
0.272275908758657
 23
0.787486562255044
 33
0
  0
SOLID
  8
0
 62
8
 10
0.224252460945857
 20
0.77973759831286
 30
0
 11
0.211859313123199
 21
0.771988634370675
 31
0
 12
0.224252460945857
 22
0.77973759831286
 32
0
 13
0.20566273921187
 23
0.750291535332559
 33
0
  0
SOLID
  8
0
 62
8
 10
0.298611347881806
 20
0.820032210812219
 30
0
 11
0.32184850004929
 21
0.826231381965967
 31
0
 12
0.298611347881806
 22
0.820032210812219
 32
0
 13
0.329594217438451
 23
0.84482889542721
 33
0
  0
SOLID
  8
0
 62
8
 10
0.179327300088721
 20
0.68984961658352
 30
0
 11
0.183974730522218
 21
0.661953346391656
 31
0
 12
0.179327300088721
 22
0.68984961658352
 32
0
 13
0.214957600078864
 23
0.671252103122277
 33
0
  0
SOLID
  8
0
 62
8
 10
0.179327300088721
 20
0.68984961658352
 30
0
 11
0.214957600078864
 21
0.671252103122277
 31
0
 12
0.179327300088721
 22
0.68984961658352
 32
0
 13
0.216506743556696
 23
0.702247958891015
 33
0
  0
SOLID
  8
0
 62
8
 10
0.179327300088721
 20
0.71464630119851
 30
0
 11
0.179327300088721
 21
0.68984961658352
 31
0
 12
0.179327300088721
 22
0.71464630119851
 32
0
 13
0.216506743556696
 23
0.702247958891015
 33
0
  0
SOLID
  8
0
 62
8
 10
0.28776734353698
 20
0.854127652157831
 30
0
 11
0.264530191369496
 21
0.84482889542721
 31
0
 12
0.28776734353698
 22
0.854127652157831
 32
0
 13
0.252137043546838
 23
0.833980345908151
 33
0
  0
SOLID
  8
0
 62
8
 10
0.326495930482786
 20
0.93471687715655
 30
0
 11
0.306357065270967
 21
0.93471687715655
 31
0
 12
0.326495930482786
 22
0.93471687715655
 32
0
 13
0.304807921793135
 23
0.899071643022501
 33
0
  0
SOLID
  8
0
 62
8
 10
0.179327300088721
 20
0.71464630119851
 30
0
 11
0.216506743556696
 21
0.702247958891015
 31
0
 12
0.179327300088721
 22
0.71464630119851
 32
0
 13
0.221154173990193
 23
0.723945057929132
 33
0
  0
SOLID
  8
0
 62
8
 10
0.183974730522218
 20
0.733243814659753
 30
0
 11
0.179327300088721
 21
0.71464630119851
 31
0
 12
0.183974730522218
 22
0.733243814659753
 32
0
 13
0.221154173990193
 23
0.723945057929132
 33
0
  0
SOLID
  8
0
 62
8
 10
0.20566273921187
 20
0.750291535332559
 30
0
 11
0.183974730522218
 21
0.733243814659753
 31
0
 12
0.20566273921187
 22
0.750291535332559
 32
0
 13
0.221154173990193
 23
0.723945057929132
 33
0
  0
SOLID
  8
0
 62
8
 10
0.20566273921187
 20
0.750291535332559
 30
0
 11
0.221154173990193
 21
0.723945057929132
 31
0
 12
0.20566273921187
 22
0.750291535332559
 32
0
 13
0.230449034857186
 23
0.739442985813501
 33
0
  0
SOLID
  8
0
 62
8
 10
0.20566273921187
 20
0.750291535332559
 30
0
 11
0.230449034857186
 21
0.739442985813501
 31
0
 12
0.20566273921187
 22
0.750291535332559
 32
0
 13
0.23974389572418
 23
0.748741742544122
 33
0
  0
SOLID
  8
0
 62
8
 10
0.224252460945857
 20
0.77973759831286
 30
0
 11
0.20566273921187
 21
0.750291535332559
 31
0
 12
0.224252460945857
 22
0.77973759831286
 32
0
 13
0.23974389572418
 23
0.748741742544122
 33
0
  0
SOLID
  8
0
 62
8
 10
0.224252460945857
 20
0.77973759831286
 30
0
 11
0.23974389572418
 21
0.748741742544122
 31
0
 12
0.224252460945857
 22
0.77973759831286
 32
0
 13
0.255235330502502
 23
0.758040499274743
 33
0
  0
SOLID
  8
0
 62
8
 10
0.245940469635509
 20
0.789036355043481
 30
0
 11
0.224252460945857
 21
0.77973759831286
 31
0
 12
0.245940469635509
 22
0.789036355043481
 32
0
 13
0.255235330502502
 23
0.758040499274743
 33
0
  0
SOLID
  8
0
 62
8
 10
0.245940469635509
 20
0.789036355043481
 30
0
 11
0.255235330502502
 21
0.758040499274743
 31
0
 12
0.245940469635509
 22
0.789036355043481
 32
0
 13
0.272275908758657
 23
0.787486562255044
 33
0
  0
SOLID
  8
0
 62
8
 10
0.245940469635509
 20
0.806084075716287
 30
0
 11
0.245940469635509
 21
0.789036355043481
 31
0
 12
0.245940469635509
 22
0.806084075716287
 32
0
 13
0.272275908758657
 23
0.787486562255044
 33
0
  0
SOLID
  8
0
 62
8
 10
0.245940469635509
 20
0.806084075716287
 30
0
 11
0.272275908758657
 21
0.787486562255044
 31
0
 12
0.245940469635509
 22
0.806084075716287
 32
0
 13
0.28776734353698
 23
0.813833039658472
 33
0
  0
SOLID
  8
0
 62
8
 10
0.252137043546838
 20
0.833980345908151
 30
0
 11
0.245940469635509
 21
0.806084075716287
 31
0
 12
0.252137043546838
 22
0.833980345908151
 32
0
 13
0.28776734353698
 23
0.813833039658472
 33
0
  0
SOLID
  8
0
 62
8
 10
0.28776734353698
 20
0.854127652157831
 30
0
 11
0.252137043546838
 21
0.833980345908151
 31
0
 12
0.28776734353698
 22
0.854127652157831
 32
0
 13
0.28776734353698
 23
0.813833039658472
 33
0
  0
SOLID
  8
0
 62
8
 10
0.28776734353698
 20
0.854127652157831
 30
0
 11
0.28776734353698
 21
0.813833039658472
 31
0
 12
0.28776734353698
 22
0.854127652157831
 32
0
 13
0.298611347881806
 23
0.820032210812219
 33
0
  0
SOLID
  8
0
 62
8
 10
0.28776734353698
 20
0.854127652157831
 30
0
 11
0.298611347881806
 21
0.820032210812219
 31
0
 12
0.28776734353698
 22
0.854127652157831
 32
0
 13
0.329594217438451
 23
0.84482889542721
 33
0
  0
SOLID
  8
0
 62
8
 10
0.303258778315303
 20
0.868075787253763
 30
0
 11
0.28776734353698
 21
0.854127652157831
 31
0
 12
0.303258778315303
 22
0.868075787253763
 32
0
 13
0.329594217438451
 23
0.84482889542721
 33
0
  0
SOLID
  8
0
 62
8
 10
0.303258778315303
 20
0.868075787253763
 30
0
 11
0.329594217438451
 21
0.84482889542721
 31
0
 12
0.303258778315303
 22
0.868075787253763
 32
0
 13
0.334241647871948
 23
0.8696255800422
 33
0
  0
SOLID
  8
0
 62
8
 10
0.306357065270967
 20
0.882023922349695
 30
0
 11
0.303258778315303
 21
0.868075787253763
 31
0
 12
0.306357065270967
 22
0.882023922349695
 32
0
 13
0.334241647871948
 23
0.8696255800422
 33
0
  0
SOLID
  8
0
 62
8
 10
0.306357065270967
 20
0.882023922349695
 30
0
 11
0.334241647871948
 21
0.8696255800422
 31
0
 12
0.306357065270967
 22
0.882023922349695
 32
0
 13
0.340438221783277
 23
0.891322679080317
 33
0
  0
SOLID
  8
0
 62
8
 10
0.304807921793135
 20
0.899071643022501
 30
0
 11
0.306357065270967
 21
0.882023922349695
 31
0
 12
0.304807921793135
 22
0.899071643022501
 32
0
 13
0.340438221783277
 23
0.891322679080317
 33
0
  0
SOLID
  8
0
 62
8
 10
0.304807921793135
 20
0.899071643022501
 30
0
 11
0.340438221783277
 21
0.891322679080317
 31
0
 12
0.304807921793135
 22
0.899071643022501
 32
0
 13
0.346634795694606
 23
0.916119363695307
 33
0
  0
SOLID
  8
0
 62
8
 10
0.304807921793135
 20
0.899071643022501
 30
0
 11
0.346634795694606
 21
0.916119363695307
 31
0
 12
0.304807921793135
 22
0.899071643022501
 32
0
 13
0.326495930482786
 23
0.93471687715655
 33
0
  0
SOLID
  8
0
 62
8
 10
0.374587881431586
 20
0.514714993804213
 30
0
 11
0.379232774711897
 21
0.510068153655514
 31
0
 12
0.374587881431586
 22
0.514714993804213
 32
0
 13
0.391619156792728
 23
0.510068153655514
 33
0
  0
SOLID
  8
0
 62
8
 10
0.589801270086025
 20
0.849287484510533
 30
0
 11
0.592897865606233
 21
0.866325898389095
 31
0
 12
0.589801270086025
 22
0.849287484510533
 32
0
 13
0.585156376805713
 23
0.872521685254027
 33
0
  0
SOLID
  8
0
 62
8
 10
0.314204268787535
 20
0.784231722428749
 30
0
 11
0.317300864307742
 21
0.765644361833953
 31
0
 12
0.314204268787535
 22
0.784231722428749
 32
0
 13
0.321945757588054
 23
0.760997521685254
 33
0
  0
SOLID
  8
0
 62
8
 10
0.470582342558026
 20
0.652571251548947
 30
0
 11
0.462840853757507
 21
0.663413878562578
 31
0
 12
0.470582342558026
 22
0.652571251548947
 32
0
 13
0.45200276943678
 23
0.671158612143742
 33
0
  0
SOLID
  8
0
 62
8
 10
0.560383612644051
 20
0.620043370508055
 30
0
 11
0.568125101444571
 21
0.610749690210657
 31
0
 12
0.560383612644051
 22
0.620043370508055
 32
0
 13
0.588252972325921
 23
0.621592317224288
 33
0
  0
SOLID
  8
0
 62
8
 10
0.369942988151274
 20
0.52865551425031
 30
0
 11
0.374587881431586
 21
0.514714993804213
 31
0
 12
0.369942988151274
 22
0.52865551425031
 32
0
 13
0.391619156792728
 23
0.510068153655514
 33
0
  0
SOLID
  8
0
 62
8
 10
0.44426128063626
 20
0.971654275092937
 30
0
 11
0.44426128063626
 21
0.977850061957869
 31
0
 12
0.44426128063626
 22
0.971654275092937
 32
0
 13
0.44
 23
1
 33
0
  0
SOLID
  8
0
 62
8
 10
0.416391920954391
 20
0.717627013630731
 30
0
 11
0.400908943353352
 21
0.703686493184635
 31
0
 12
0.416391920954391
 22
0.717627013630731
 32
0
 13
0.40400553887356
 23
0.688197026022305
 33
0
  0
SOLID
  8
0
 62
8
 10
0.325042353108262
 20
0.793525402726146
 30
0
 11
0.314204268787535
 21
0.784231722428749
 31
0
 12
0.325042353108262
 22
0.793525402726146
 32
0
 13
0.321945757588054
 23
0.760997521685254
 33
0
  0
SOLID
  8
0
 62
8
 10
0.438068089595845
 20
0.781133828996283
 30
0
 11
0.431874898555429
 21
0.791976456009913
 31
0
 12
0.438068089595845
 22
0.781133828996283
 32
0
 13
0.416391920954391
 23
0.80591697645601
 33
0
  0
SOLID
  8
0
 62
8
 10
0.577414888005194
 20
0.839993804213135
 30
0
 11
0.589801270086025
 21
0.849287484510533
 31
0
 12
0.577414888005194
 22
0.839993804213135
 32
0
 13
0.585156376805713
 23
0.872521685254027
 33
0
  0
SOLID
  8
0
 62
8
 10
0.369942988151274
 20
0.52865551425031
 30
0
 11
0.391619156792728
 21
0.510068153655514
 31
0
 12
0.369942988151274
 22
0.52865551425031
 32
0
 13
0.405553836633663
 23
0.533302354399009
 33
0
  0
SOLID
  8
0
 62
8
 10
0.321945757588054
 20
0.760997521685254
 30
0
 11
0.342073628469404
 21
0.760997521685254
 31
0
 12
0.321945757588054
 22
0.760997521685254
 32
0
 13
0.356008308310339
 23
0.773389095415118
 33
0
  0
SOLID
  8
0
 62
8
 10
0.325042353108262
 20
0.793525402726146
 30
0
 11
0.321945757588054
 21
0.760997521685254
 31
0
 12
0.325042353108262
 22
0.793525402726146
 32
0
 13
0.356008308310339
 23
0.773389095415118
 33
0
  0
SOLID
  8
0
 62
8
 10
0.343621926229508
 20
0.801270136307311
 30
0
 11
0.325042353108262
 21
0.793525402726146
 31
0
 12
0.343621926229508
 22
0.801270136307311
 32
0
 13
0.356008308310339
 23
0.773389095415118
 33
0
  0
SOLID
  8
0
 62
8
 10
0.343621926229508
 20
0.801270136307311
 30
0
 11
0.356008308310339
 21
0.773389095415118
 31
0
 12
0.343621926229508
 22
0.801270136307311
 32
0
 13
0.366846392631066
 23
0.782682775712516
 33
0
  0
SOLID
  8
0
 62
8
 10
0.354460010550235
 20
0.80591697645601
 30
0
 11
0.343621926229508
 21
0.801270136307311
 31
0
 12
0.354460010550235
 22
0.80591697645601
 32
0
 13
0.366846392631066
 23
0.782682775712516
 33
0
  0
SOLID
  8
0
 62
8
 10
0.366846392631066
 20
0.815210656753408
 30
0
 11
0.354460010550235
 21
0.80591697645601
 31
0
 12
0.366846392631066
 22
0.815210656753408
 32
0
 13
0.366846392631066
 23
0.782682775712516
 33
0
  0
SOLID
  8
0
 62
8
 10
0.366846392631066
 20
0.815210656753408
 30
0
 11
0.366846392631066
 21
0.782682775712516
 31
0
 12
0.366846392631066
 22
0.815210656753408
 32
0
 13
0.383877667992209
 23
0.785780669144981
 33
0
  0
SOLID
  8
0
 62
8
 10
0.37613617919169
 20
0.556536555142503
 30
0
 11
0.369942988151274
 21
0.52865551425031
 31
0
 12
0.37613617919169
 22
0.556536555142503
 32
0
 13
0.405553836633663
 23
0.533302354399009
 33
0
  0
SOLID
  8
0
 62
8
 10
0.462840853757507
 20
0.592162329615861
 30
0
 11
0.478323831358546
 21
0.61229863692689
 31
0
 12
0.462840853757507
 22
0.592162329615861
 32
0
 13
0.47987212911865
 23
0.626239157372986
 33
0
  0
SOLID
  8
0
 62
8
 10
0.560383612644051
 20
0.620043370508055
 30
0
 11
0.588252972325921
 21
0.621592317224288
 31
0
 12
0.560383612644051
 22
0.620043370508055
 32
0
 13
0.592897865606233
 23
0.641728624535316
 33
0
  0
SOLID
  8
0
 62
8
 10
0.55573871936374
 20
0.646375464684015
 30
0
 11
0.560383612644051
 21
0.620043370508055
 31
0
 12
0.55573871936374
 22
0.646375464684015
 32
0
 13
0.592897865606233
 23
0.641728624535316
 33
0
  0
SOLID
  8
0
 62
8
 10
0.416391920954391
 20
0.61229863692689
 30
0
 11
0.40400553887356
 21
0.599907063197026
 31
0
 12
0.416391920954391
 22
0.61229863692689
 32
0
 13
0.391619156792728
 23
0.581319702602231
 33
0
  0
SOLID
  8
0
 62
8
 10
0.55573871936374
 20
0.646375464684015
 30
0
 11
0.592897865606233
 21
0.641728624535316
 31
0
 12
0.55573871936374
 22
0.646375464684015
 32
0
 13
0.586704674565817
 23
0.672707558859975
 33
0
  0
SOLID
  8
0
 62
8
 10
0.450454471676676
 20
0.740861214374226
 30
0
 11
0.447357876156468
 21
0.759448574969021
 31
0
 12
0.450454471676676
 22
0.740861214374226
 32
0
 13
0.438068089595845
 23
0.781133828996283
 33
0
  0
SOLID
  8
0
 62
8
 10
0.37613617919169
 20
0.556536555142503
 30
0
 11
0.405553836633663
 21
0.533302354399009
 31
0
 12
0.37613617919169
 22
0.556536555142503
 32
0
 13
0.417940218714494
 23
0.565830235439901
 33
0
  0
SOLID
  8
0
 62
8
 10
0.391619156792728
 20
0.581319702602231
 30
0
 11
0.37613617919169
 21
0.556536555142503
 31
0
 12
0.391619156792728
 22
0.581319702602231
 32
0
 13
0.417940218714494
 23
0.565830235439901
 33
0
  0
SOLID
  8
0
 62
8
 10
0.391619156792728
 20
0.581319702602231
 30
0
 11
0.417940218714494
 21
0.565830235439901
 31
0
 12
0.391619156792728
 22
0.581319702602231
 32
0
 13
0.428778303035222
 23
0.576672862453532
 33
0
  0
SOLID
  8
0
 62
8
 10
0.416391920954391
 20
0.61229863692689
 30
0
 11
0.391619156792728
 21
0.581319702602231
 31
0
 12
0.416391920954391
 22
0.61229863692689
 32
0
 13
0.428778303035222
 23
0.576672862453532
 33
0
  0
SOLID
  8
0
 62
8
 10
0.416391920954391
 20
0.61229863692689
 30
0
 11
0.428778303035222
 21
0.576672862453532
 31
0
 12
0.416391920954391
 22
0.61229863692689
 32
0
 13
0.447357876156468
 23
0.589064436183395
 33
0
  0
SOLID
  8
0
 62
8
 10
0.577414888005194
 20
0.839993804213135
 30
0
 11
0.585156376805713
 21
0.872521685254027
 31
0
 12
0.577414888005194
 22
0.839993804213135
 32
0
 13
0.558835314883947
 23
0.878717472118959
 33
0
  0
SOLID
  8
0
 62
8
 10
0.551093826083428
 20
0.839993804213135
 30
0
 11
0.577414888005194
 21
0.839993804213135
 31
0
 12
0.551093826083428
 22
0.839993804213135
 32
0
 13
0.558835314883947
 23
0.878717472118959
 33
0
  0
SOLID
  8
0
 62
8
 10
0.362201499350755
 20
0.870972738537794
 30
0
 11
0.362201499350755
 21
0.844640644361834
 31
0
 12
0.362201499350755
 22
0.870972738537794
 32
0
 13
0.365298094870963
 23
0.827602230483271
 33
0
  0
SOLID
  8
0
 62
8
 10
0.366846392631066
 20
0.815210656753408
 30
0
 11
0.383877667992209
 21
0.785780669144981
 31
0
 12
0.366846392631066
 22
0.815210656753408
 32
0
 13
0.39626405007304
 23
0.782682775712516
 33
0
  0
SOLID
  8
0
 62
8
 10
0.543352337282909
 20
0.66496282527881
 30
0
 11
0.55573871936374
 21
0.646375464684015
 31
0
 12
0.543352337282909
 22
0.66496282527881
 32
0
 13
0.586704674565817
 23
0.672707558859975
 33
0
  0
SOLID
  8
0
 62
8
 10
0.543352337282909
 20
0.66496282527881
 30
0
 11
0.586704674565817
 21
0.672707558859975
 31
0
 12
0.543352337282909
 22
0.66496282527881
 32
0
 13
0.569673399204675
 23
0.691294919454771
 33
0
  0
SOLID
  8
0
 62
8
 10
0.543352337282909
 20
0.66496282527881
 30
0
 11
0.569673399204675
 21
0.691294919454771
 31
0
 12
0.543352337282909
 22
0.66496282527881
 32
0
 13
0.543352337282909
 23
0.7067843866171
 33
0
  0
SOLID
  8
0
 62
8
 10
0.52786935968187
 20
0.678903345724907
 30
0
 11
0.543352337282909
 21
0.66496282527881
 31
0
 12
0.52786935968187
 22
0.678903345724907
 32
0
 13
0.543352337282909
 23
0.7067843866171
 33
0
  0
SOLID
  8
0
 62
8
 10
0.52786935968187
 20
0.678903345724907
 30
0
 11
0.543352337282909
 21
0.7067843866171
 31
0
 12
0.52786935968187
 22
0.678903345724907
 32
0
 13
0.523224466401558
 23
0.712980173482032
 33
0
  0
SOLID
  8
0
 62
8
 10
0.515482977601039
 20
0.683550185873606
 30
0
 11
0.52786935968187
 21
0.678903345724907
 31
0
 12
0.515482977601039
 22
0.683550185873606
 32
0
 13
0.523224466401558
 23
0.712980173482032
 33
0
  0
SOLID
  8
0
 62
8
 10
0.486065320159065
 20
0.694392812887237
 30
0
 11
0.515482977601039
 21
0.683550185873606
 31
0
 12
0.486065320159065
 22
0.694392812887237
 32
0
 13
0.523224466401558
 23
0.712980173482032
 33
0
  0
SOLID
  8
0
 62
8
 10
0.486065320159065
 20
0.694392812887237
 30
0
 11
0.523224466401558
 21
0.712980173482032
 31
0
 12
0.486065320159065
 22
0.694392812887237
 32
0
 13
0.496903404479792
 23
0.725371747211896
 33
0
  0
SOLID
  8
0
 62
8
 10
0.456647662717091
 20
0.7067843866171
 30
0
 11
0.486065320159065
 21
0.694392812887237
 31
0
 12
0.456647662717091
 22
0.7067843866171
 32
0
 13
0.496903404479792
 23
0.725371747211896
 33
0
  0
SOLID
  8
0
 62
8
 10
0.456647662717091
 20
0.7067843866171
 30
0
 11
0.496903404479792
 21
0.725371747211896
 31
0
 12
0.456647662717091
 22
0.7067843866171
 32
0
 13
0.470582342558026
 23
0.73776332094176
 33
0
  0
SOLID
  8
0
 62
8
 10
0.456647662717091
 20
0.7067843866171
 30
0
 11
0.470582342558026
 21
0.73776332094176
 31
0
 12
0.456647662717091
 22
0.7067843866171
 32
0
 13
0.450454471676676
 23
0.740861214374226
 33
0
  0
SOLID
  8
0
 62
8
 10
0.442712982876156
 20
0.703686493184635
 30
0
 11
0.456647662717091
 21
0.7067843866171
 31
0
 12
0.442712982876156
 22
0.703686493184635
 32
0
 13
0.450454471676676
 23
0.740861214374226
 33
0
  0
SOLID
  8
0
 62
8
 10
0.44
 20
1
 30
0
 11
0.4
 21
1
 31
0
 12
0.44
 22
1
 32
0
 13
0.411747027674079
 23
0.965458488228005
 33
0
  0
SOLID
  8
0
 62
8
 10
0.44426128063626
 20
0.971654275092937
 30
0
 11
0.44
 21
1
 31
0
 12
0.44426128063626
 22
0.971654275092937
 32
0
 13
0.411747027674079
 23
0.965458488228005
 33
0
  0
SOLID
  8
0
 62
8
 10
0.44426128063626
 20
0.948420074349442
 30
0
 11
0.44426128063626
 21
0.971654275092937
 31
0
 12
0.44426128063626
 22
0.948420074349442
 32
0
 13
0.411747027674079
 23
0.965458488228005
 33
0
  0
SOLID
  8
0
 62
8
 10
0.44426128063626
 20
0.948420074349442
 30
0
 11
0.411747027674079
 21
0.965458488228005
 31
0
 12
0.44426128063626
 22
0.948420074349442
 32
0
 13
0.411747027674079
 23
0.940675340768278
 33
0
  0
SOLID
  8
0
 62
8
 10
0.447357876156468
 20
0.945322180916977
 30
0
 11
0.44426128063626
 21
0.948420074349442
 31
0
 12
0.447357876156468
 22
0.945322180916977
 32
0
 13
0.411747027674079
 23
0.940675340768278
 33
0
  0
SOLID
  8
0
 62
8
 10
0.386974263512417
 20
0.908147459727385
 30
0
 11
0.371491285911378
 21
0.894206939281289
 31
0
 12
0.386974263512417
 22
0.908147459727385
 32
0
 13
0.362201499350755
 23
0.870972738537794
 33
0
  0
SOLID
  8
0
 62
8
 10
0.551093826083428
 20
0.839993804213135
 30
0
 11
0.558835314883947
 21
0.878717472118959
 31
0
 12
0.551093826083428
 22
0.839993804213135
 32
0
 13
0.534062550722285
 23
0.881815365551425
 33
0
  0
SOLID
  8
0
 62
8
 10
0.529417657441974
 20
0.841542750929368
 30
0
 11
0.551093826083428
 21
0.839993804213135
 31
0
 12
0.529417657441974
 22
0.841542750929368
 32
0
 13
0.534062550722285
 23
0.881815365551425
 33
0
  0
SOLID
  8
0
 62
8
 10
0.498451702239896
 20
0.853934324659232
 30
0
 11
0.529417657441974
 21
0.841542750929368
 31
0
 12
0.498451702239896
 22
0.853934324659232
 32
0
 13
0.534062550722285
 23
0.881815365551425
 33
0
  0
SOLID
  8
0
 62
8
 10
0.498451702239896
 20
0.853934324659232
 30
0
 11
0.534062550722285
 21
0.881815365551425
 31
0
 12
0.498451702239896
 22
0.853934324659232
 32
0
 13
0.517031275361143
 23
0.892657992565056
 33
0
  0
SOLID
  8
0
 62
8
 10
0.482968724638857
 20
0.866325898389095
 30
0
 11
0.498451702239896
 21
0.853934324659232
 31
0
 12
0.482968724638857
 22
0.866325898389095
 32
0
 13
0.517031275361143
 23
0.892657992565056
 33
0
  0
SOLID
  8
0
 62
8
 10
0.425681707515014
 20
0.632434944237918
 30
0
 11
0.416391920954391
 21
0.61229863692689
 31
0
 12
0.425681707515014
 22
0.632434944237918
 32
0
 13
0.447357876156468
 23
0.589064436183395
 33
0
  0
SOLID
  8
0
 62
8
 10
0.447357876156468
 20
0.589064436183395
 30
0
 11
0.462840853757507
 21
0.592162329615861
 31
0
 12
0.447357876156468
 22
0.589064436183395
 32
0
 13
0.47987212911865
 23
0.626239157372986
 33
0
  0
SOLID
  8
0
 62
8
 10
0.416391920954391
 20
0.717627013630731
 30
0
 11
0.40400553887356
 21
0.688197026022305
 31
0
 12
0.416391920954391
 22
0.717627013630731
 32
0
 13
0.410198729913975
 23
0.668060718711276
 33
0
  0
SOLID
  8
0
 62
8
 10
0.447357876156468
 20
0.945322180916977
 30
0
 11
0.411747027674079
 21
0.940675340768278
 31
0
 12
0.447357876156468
 22
0.945322180916977
 32
0
 13
0.402457241113456
 23
0.922087980173482
 33
0
  0
SOLID
  8
0
 62
8
 10
0.465937449277715
 20
0.892657992565056
 30
0
 11
0.482968724638857
 21
0.866325898389095
 31
0
 12
0.465937449277715
 22
0.892657992565056
 32
0
 13
0.517031275361143
 23
0.892657992565056
 33
0
  0
SOLID
  8
0
 62
8
 10
0.465937449277715
 20
0.892657992565056
 30
0
 11
0.517031275361143
 21
0.892657992565056
 31
0
 12
0.465937449277715
 22
0.892657992565056
 32
0
 13
0.492258511199481
 23
0.918990086741016
 33
0
  0
SOLID
  8
0
 62
8
 10
0.465937449277715
 20
0.892657992565056
 30
0
 11
0.492258511199481
 21
0.918990086741016
 31
0
 12
0.465937449277715
 22
0.892657992565056
 32
0
 13
0.464389151517611
 23
0.936028500619579
 33
0
  0
SOLID
  8
0
 62
8
 10
0.436519791835741
 20
0.90504956629492
 30
0
 11
0.465937449277715
 21
0.892657992565056
 31
0
 12
0.436519791835741
 22
0.90504956629492
 32
0
 13
0.464389151517611
 23
0.936028500619579
 33
0
  0
SOLID
  8
0
 62
8
 10
0.436519791835741
 20
0.90504956629492
 30
0
 11
0.464389151517611
 21
0.936028500619579
 31
0
 12
0.436519791835741
 22
0.90504956629492
 32
0
 13
0.447357876156468
 23
0.945322180916977
 33
0
  0
SOLID
  8
0
 62
8
 10
0.436519791835741
 20
0.90504956629492
 30
0
 11
0.447357876156468
 21
0.945322180916977
 31
0
 12
0.436519791835741
 22
0.90504956629492
 32
0
 13
0.402457241113456
 23
0.922087980173482
 33
0
  0
SOLID
  8
0
 62
8
 10
0.42413340975491
 20
0.898853779429988
 30
0
 11
0.436519791835741
 21
0.90504956629492
 31
0
 12
0.42413340975491
 22
0.898853779429988
 32
0
 13
0.402457241113456
 23
0.922087980173482
 33
0
  0
SOLID
  8
0
 62
8
 10
0.417940218714494
 20
0.892657992565056
 30
0
 11
0.42413340975491
 21
0.898853779429988
 31
0
 12
0.417940218714494
 22
0.892657992565056
 32
0
 13
0.402457241113456
 23
0.922087980173482
 33
0
  0
SOLID
  8
0
 62
8
 10
0.417940218714494
 20
0.892657992565056
 30
0
 11
0.402457241113456
 21
0.922087980173482
 31
0
 12
0.417940218714494
 22
0.892657992565056
 32
0
 13
0.386974263512417
 23
0.908147459727385
 33
0
  0
SOLID
  8
0
 62
8
 10
0.402457241113456
 20
0.870972738537794
 30
0
 11
0.417940218714494
 21
0.892657992565056
 31
0
 12
0.402457241113456
 22
0.870972738537794
 32
0
 13
0.386974263512417
 23
0.908147459727385
 33
0
  0
SOLID
  8
0
 62
8
 10
0.402457241113456
 20
0.870972738537794
 30
0
 11
0.386974263512417
 21
0.908147459727385
 31
0
 12
0.402457241113456
 22
0.870972738537794
 32
0
 13
0.362201499350755
 23
0.870972738537794
 33
0
  0
SOLID
  8
0
 62
8
 10
0.397812347833144
 20
0.858581164807931
 30
0
 11
0.402457241113456
 21
0.870972738537794
 31
0
 12
0.397812347833144
 22
0.858581164807931
 32
0
 13
0.362201499350755
 23
0.870972738537794
 33
0
  0
SOLID
  8
0
 62
8
 10
0.397812347833144
 20
0.858581164807931
 30
0
 11
0.362201499350755
 21
0.870972738537794
 31
0
 12
0.397812347833144
 22
0.858581164807931
 32
0
 13
0.365298094870963
 23
0.827602230483271
 33
0
  0
SOLID
  8
0
 62
8
 10
0.394715752312936
 20
0.830700123915737
 30
0
 11
0.397812347833144
 21
0.858581164807931
 31
0
 12
0.394715752312936
 22
0.830700123915737
 32
0
 13
0.365298094870963
 23
0.827602230483271
 33
0
  0
SOLID
  8
0
 62
8
 10
0.394715752312936
 20
0.830700123915737
 30
0
 11
0.365298094870963
 21
0.827602230483271
 31
0
 12
0.394715752312936
 22
0.830700123915737
 32
0
 13
0.366846392631066
 23
0.815210656753408
 33
0
  0
SOLID
  8
0
 62
8
 10
0.397812347833144
 20
0.819857496902107
 30
0
 11
0.394715752312936
 21
0.830700123915737
 31
0
 12
0.397812347833144
 22
0.819857496902107
 32
0
 13
0.366846392631066
 23
0.815210656753408
 33
0
  0
SOLID
  8
0
 62
8
 10
0.397812347833144
 20
0.819857496902107
 30
0
 11
0.366846392631066
 21
0.815210656753408
 31
0
 12
0.397812347833144
 22
0.819857496902107
 32
0
 13
0.39626405007304
 23
0.782682775712516
 33
0
  0
SOLID
  8
0
 62
8
 10
0.416391920954391
 20
0.80591697645601
 30
0
 11
0.397812347833144
 21
0.819857496902107
 31
0
 12
0.416391920954391
 22
0.80591697645601
 32
0
 13
0.39626405007304
 23
0.782682775712516
 33
0
  0
SOLID
  8
0
 62
8
 10
0.416391920954391
 20
0.80591697645601
 30
0
 11
0.39626405007304
 21
0.782682775712516
 31
0
 12
0.416391920954391
 22
0.80591697645601
 32
0
 13
0.410198729913975
 23
0.767193308550186
 33
0
  0
SOLID
  8
0
 62
8
 10
0.438068089595845
 20
0.781133828996283
 30
0
 11
0.416391920954391
 21
0.80591697645601
 31
0
 12
0.438068089595845
 22
0.781133828996283
 32
0
 13
0.410198729913975
 23
0.767193308550186
 33
0
  0
SOLID
  8
0
 62
8
 10
0.438068089595845
 20
0.781133828996283
 30
0
 11
0.410198729913975
 21
0.767193308550186
 31
0
 12
0.438068089595845
 22
0.781133828996283
 32
0
 13
0.414843623194287
 23
0.751703841387856
 33
0
  0
SOLID
  8
0
 62
8
 10
0.450454471676676
 20
0.740861214374226
 30
0
 11
0.438068089595845
 21
0.781133828996283
 31
0
 12
0.450454471676676
 22
0.740861214374226
 32
0
 13
0.414843623194287
 23
0.751703841387856
 33
0
  0
SOLID
  8
0
 62
8
 10
0.450454471676676
 20
0.740861214374226
 30
0
 11
0.414843623194287
 21
0.751703841387856
 31
0
 12
0.450454471676676
 22
0.740861214374226
 32
0
 13
0.416391920954391
 23
0.731567534076828
 33
0
  0
SOLID
  8
0
 62
8
 10
0.442712982876156
 20
0.703686493184635
 30
0
 11
0.450454471676676
 21
0.740861214374226
 31
0
 12
0.442712982876156
 22
0.703686493184635
 32
0
 13
0.416391920954391
 23
0.731567534076828
 33
0
  0
SOLID
  8
0
 62
8
 10
0.442712982876156
 20
0.703686493184635
 30
0
 11
0.416391920954391
 21
0.731567534076828
 31
0
 12
0.442712982876156
 22
0.703686493184635
 32
0
 13
0.416391920954391
 23
0.717627013630731
 33
0
  0
SOLID
  8
0
 62
8
 10
0.439616387355949
 20
0.688197026022305
 30
0
 11
0.442712982876156
 21
0.703686493184635
 31
0
 12
0.439616387355949
 22
0.688197026022305
 32
0
 13
0.416391920954391
 23
0.717627013630731
 33
0
  0
SOLID
  8
0
 62
8
 10
0.439616387355949
 20
0.688197026022305
 30
0
 11
0.416391920954391
 21
0.717627013630731
 31
0
 12
0.439616387355949
 22
0.688197026022305
 32
0
 13
0.410198729913975
 23
0.668060718711276
 33
0
  0
SOLID
  8
0
 62
8
 10
0.45200276943678
 20
0.671158612143742
 30
0
 11
0.439616387355949
 21
0.688197026022305
 31
0
 12
0.45200276943678
 22
0.671158612143742
 32
0
 13
0.410198729913975
 23
0.668060718711276
 33
0
  0
SOLID
  8
0
 62
8
 10
0.45200276943678
 20
0.671158612143742
 30
0
 11
0.410198729913975
 21
0.668060718711276
 31
0
 12
0.45200276943678
 22
0.671158612143742
 32
0
 13
0.425681707515014
 23
0.640179677819083
 33
0
  0
SOLID
  8
0
 62
8
 10
0.470582342558026
 20
0.652571251548947
 30
0
 11
0.45200276943678
 21
0.671158612143742
 31
0
 12
0.470582342558026
 22
0.652571251548947
 32
0
 13
0.425681707515014
 23
0.640179677819083
 33
0
  0
SOLID
  8
0
 62
8
 10
0.470582342558026
 20
0.652571251548947
 30
0
 11
0.425681707515014
 21
0.640179677819083
 31
0
 12
0.470582342558026
 22
0.652571251548947
 32
0
 13
0.425681707515014
 23
0.632434944237918
 33
0
  0
SOLID
  8
0
 62
8
 10
0.425681707515014
 20
0.632434944237918
 30
0
 11
0.447357876156468
 21
0.589064436183395
 31
0
 12
0.425681707515014
 22
0.632434944237918
 32
0
 13
0.47987212911865
 23
0.626239157372986
 33
0
  0
SOLID
  8
0
 62
8
 10
0.425681707515014
 20
0.632434944237918
 30
0
 11
0.47987212911865
 21
0.626239157372986
 31
0
 12
0.425681707515014
 22
0.632434944237918
 32
0
 13
0.470582342558026
 23
0.652571251548947
 33
0
  0
SOLID
  8
0
 62
8
 10
0.365298094870962
 20
0.66496282527881
 30
0
 11
0.374587881431586
 21
0.658767038413879
 31
0
 12
0.365298094870962
 22
0.66496282527881
 32
0
 13
0.385425965752313
 23
0.663413878562578
 33
0
  0
SOLID
  8
0
 62
8
 10
0.332783841908781
 20
0.671158612143742
 30
0
 11
0.3405253307093
 21
0.661864931846345
 31
0
 12
0.332783841908781
 22
0.671158612143742
 32
0
 13
0.352911712790131
 23
0.666511771995043
 33
0
  0
SOLID
  8
0
 62
8
 10
0.377684476951793
 20
0.757899628252788
 30
0
 11
0.359104903830547
 21
0.753252788104089
 31
0
 12
0.377684476951793
 22
0.757899628252788
 32
0
 13
0.356008308310339
 23
0.745508054522924
 33
0
  0
SOLID
  8
0
 62
8
 10
0.365298094870962
 20
0.66496282527881
 30
0
 11
0.385425965752313
 21
0.663413878562578
 31
0
 12
0.365298094870962
 22
0.66496282527881
 32
0
 13
0.380781072472001
 23
0.686648079306072
 33
0
  0
SOLID
  8
0
 62
8
 10
0.356008308310339
 20
0.745508054522924
 30
0
 11
0.337428735189093
 21
0.736214374225527
 31
0
 12
0.356008308310339
 22
0.745508054522924
 32
0
 13
0.334332139668885
 23
0.726920693928129
 33
0
  0
SOLID
  8
0
 62
8
 10
0.365298094870962
 20
0.66496282527881
 30
0
 11
0.380781072472001
 21
0.686648079306072
 31
0
 12
0.365298094870962
 22
0.66496282527881
 32
0
 13
0.373039583671482
 23
0.692843866171004
 33
0
  0
SOLID
  8
0
 62
8
 10
0.394715752312936
 20
0.731567534076828
 30
0
 11
0.388522561272521
 21
0.754801734820322
 31
0
 12
0.394715752312936
 22
0.731567534076828
 32
0
 13
0.377684476951793
 23
0.757899628252788
 33
0
  0
SOLID
  8
0
 62
8
 10
0.332783841908781
 20
0.671158612143742
 30
0
 11
0.352911712790131
 21
0.666511771995043
 31
0
 12
0.332783841908781
 22
0.671158612143742
 32
0
 13
0.365298094870962
 23
0.66496282527881
 33
0
  0
SOLID
  8
0
 62
8
 10
0.331235544148677
 20
0.7067843866171
 30
0
 11
0.328138948628469
 21
0.694392812887237
 31
0
 12
0.331235544148677
 22
0.7067843866171
 32
0
 13
0.332783841908781
 23
0.671158612143742
 33
0
  0
SOLID
  8
0
 62
8
 10
0.365298094870962
 20
0.66496282527881
 30
0
 11
0.373039583671482
 21
0.692843866171004
 31
0
 12
0.365298094870962
 22
0.66496282527881
 32
0
 13
0.363749797110859
 23
0.702137546468402
 33
0
  0
SOLID
  8
0
 62
8
 10
0.394715752312936
 20
0.731567534076828
 30
0
 11
0.377684476951793
 21
0.757899628252788
 31
0
 12
0.394715752312936
 22
0.731567534076828
 32
0
 13
0.356008308310339
 23
0.745508054522924
 33
0
  0
SOLID
  8
0
 62
8
 10
0.363749797110859
 20
0.702137546468402
 30
0
 11
0.386974263512417
 21
0.714529120198265
 31
0
 12
0.363749797110859
 22
0.702137546468402
 32
0
 13
0.394715752312936
 23
0.731567534076828
 33
0
  0
SOLID
  8
0
 62
8
 10
0.332783841908781
 20
0.671158612143742
 30
0
 11
0.365298094870962
 21
0.66496282527881
 31
0
 12
0.332783841908781
 22
0.671158612143742
 32
0
 13
0.363749797110859
 23
0.702137546468402
 33
0
  0
SOLID
  8
0
 62
8
 10
0.331235544148677
 20
0.7067843866171
 30
0
 11
0.332783841908781
 21
0.671158612143742
 31
0
 12
0.331235544148677
 22
0.7067843866171
 32
0
 13
0.363749797110859
 23
0.702137546468402
 33
0
  0
SOLID
  8
0
 62
8
 10
0.334332139668885
 20
0.726920693928129
 30
0
 11
0.331235544148677
 21
0.7067843866171
 31
0
 12
0.334332139668885
 22
0.726920693928129
 32
0
 13
0.363749797110859
 23
0.702137546468402
 33
0
  0
SOLID
  8
0
 62
8
 10
0.363749797110859
 20
0.702137546468402
 30
0
 11
0.394715752312936
 21
0.731567534076828
 31
0
 12
0.363749797110859
 22
0.702137546468402
 32
0
 13
0.356008308310339
 23
0.745508054522924
 33
0
  0
SOLID
  8
0
 62
8
 10
0.334332139668885
 20
0.726920693928129
 30
0
 11
0.363749797110859
 21
0.702137546468402
 31
0
 12
0.334332139668885
 22
0.726920693928129
 32
0
 13
0.356008308310339
 23
0.745508054522924
 33
0
  0
SOLID
  8
0
 62
8
 10
0.620767225288102
 20
0.8477385377943
 30
0
 11
0.617670629767895
 21
0.846189591078067
 31
0
 12
0.620767225288102
 22
0.8477385377943
 32
0
 13
0.611477438727479
 23
0.835346964064436
 33
0
  0
SOLID
  8
0
 62
8
 10
0.619218927527999
 20
0.661864931846345
 30
0
 11
0.633153607368933
 21
0.655669144981413
 31
0
 12
0.619218927527999
 22
0.661864931846345
 32
0
 13
0.637798500649245
 23
0.658767038413879
 33
0
  0
SOLID
  8
0
 62
8
 10
0.47213064031813
 20
0.793525402726146
 30
0
 11
0.475227235838338
 21
0.784231722428749
 31
0
 12
0.47213064031813
 22
0.793525402726146
 32
0
 13
0.479872129118649
 23
0.774938042131351
 33
0
  0
SOLID
  8
0
 62
8
 10
0.571221696964778
 20
0.799721189591078
 30
0
 11
0.561931910404155
 21
0.807465923172243
 31
0
 12
0.571221696964778
 22
0.799721189591078
 32
0
 13
0.551093826083428
 23
0.807465923172243
 33
0
  0
SOLID
  8
0
 62
8
 10
0.430326600795325
 20
0.833798017348203
 30
0
 11
0.439616387355949
 21
0.826053283767038
 31
0
 12
0.430326600795325
 22
0.833798017348203
 32
0
 13
0.448906173916572
 23
0.82140644361834
 33
0
  0
SOLID
  8
0
 62
8
 10
0.616122332007791
 20
0.669609665427509
 30
0
 11
0.619218927527999
 21
0.661864931846345
 31
0
 12
0.616122332007791
 22
0.669609665427509
 32
0
 13
0.637798500649245
 23
0.658767038413879
 33
0
  0
SOLID
  8
0
 62
8
 10
0.569673399204674
 20
0.736214374225527
 30
0
 11
0.578963185765298
 21
0.728469640644362
 31
0
 12
0.569673399204674
 22
0.736214374225527
 32
0
 13
0.589801270086025
 23
0.72227385377943
 33
0
  0
SOLID
  8
0
 62
8
 10
0.430326600795325
 20
0.858581164807931
 30
0
 11
0.42413340975491
 21
0.846189591078067
 31
0
 12
0.430326600795325
 22
0.858581164807931
 32
0
 13
0.430326600795325
 23
0.833798017348203
 33
0
  0
SOLID
  8
0
 62
8
 10
0.636250202889141
 20
0.839993804213135
 30
0
 11
0.620767225288102
 21
0.8477385377943
 31
0
 12
0.636250202889141
 22
0.839993804213135
 32
0
 13
0.611477438727479
 23
0.835346964064436
 33
0
  0
SOLID
  8
0
 62
8
 10
0.637798500649245
 20
0.658767038413879
 30
0
 11
0.643991691689661
 21
0.672707558859975
 31
0
 12
0.637798500649245
 22
0.658767038413879
 32
0
 13
0.645539989449765
 23
0.683550185873606
 33
0
  0
SOLID
  8
0
 62
8
 10
0.456647662717091
 20
0.857032218091698
 30
0
 11
0.442712982876156
 21
0.866325898389095
 31
0
 12
0.456647662717091
 22
0.857032218091698
 32
0
 13
0.430326600795325
 23
0.858581164807931
 33
0
  0
SOLID
  8
0
 62
8
 10
0.608380843207271
 20
0.802819083023544
 30
0
 11
0.599091056646648
 21
0.793525402726146
 31
0
 12
0.608380843207271
 22
0.802819083023544
 32
0
 13
0.59599446112644
 23
0.778035935563817
 33
0
  0
SOLID
  8
0
 62
8
 10
0.532514252962181
 20
0.757899628252788
 30
0
 11
0.541804039522805
 21
0.751703841387856
 31
0
 12
0.532514252962181
 22
0.757899628252788
 32
0
 13
0.557287017123843
 23
0.743959107806692
 33
0
  0
SOLID
  8
0
 62
8
 10
0.630057011848726
 20
0.781133828996283
 30
0
 11
0.636250202889141
 21
0.791976456009913
 31
0
 12
0.630057011848726
 22
0.781133828996283
 32
0
 13
0.639346798409349
 23
0.809014869888476
 33
0
  0
SOLID
  8
0
 62
8
 10
0.639346798409349
 20
0.809014869888476
 30
0
 11
0.639346798409349
 21
0.82140644361834
 31
0
 12
0.639346798409349
 22
0.809014869888476
 32
0
 13
0.636250202889141
 23
0.839993804213135
 33
0
  0
SOLID
  8
0
 62
8
 10
0.510838084320727
 20
0.80591697645601
 30
0
 11
0.5
 21
0.824504337050806
 31
0
 12
0.510838084320727
 22
0.80591697645601
 32
0
 13
0.487613617919169
 23
0.827602230483271
 33
0
  0
SOLID
  8
0
 62
8
 10
0.616122332007791
 20
0.669609665427509
 30
0
 11
0.637798500649245
 21
0.658767038413879
 31
0
 12
0.616122332007791
 22
0.669609665427509
 32
0
 13
0.645539989449765
 23
0.683550185873606
 33
0
  0
SOLID
  8
0
 62
8
 10
0.571221696964778
 20
0.799721189591078
 30
0
 11
0.551093826083428
 21
0.807465923172243
 31
0
 12
0.571221696964778
 22
0.799721189591078
 32
0
 13
0.538707444002597
 23
0.804368029739777
 33
0
  0
SOLID
  8
0
 62
8
 10
0.479872129118649
 20
0.774938042131351
 30
0
 11
0.496903404479792
 21
0.767193308550186
 31
0
 12
0.479872129118649
 22
0.774938042131351
 32
0
 13
0.512386382080831
 23
0.765644361833953
 33
0
  0
SOLID
  8
0
 62
8
 10
0.636250202889141
 20
0.839993804213135
 30
0
 11
0.611477438727479
 21
0.835346964064436
 31
0
 12
0.636250202889141
 22
0.839993804213135
 32
0
 13
0.611477438727479
 23
0.816759603469641
 33
0
  0
SOLID
  8
0
 62
8
 10
0.639346798409349
 20
0.809014869888476
 30
0
 11
0.636250202889141
 21
0.839993804213135
 31
0
 12
0.639346798409349
 22
0.809014869888476
 32
0
 13
0.611477438727479
 23
0.816759603469641
 33
0
  0
SOLID
  8
0
 62
8
 10
0.639346798409349
 20
0.809014869888476
 30
0
 11
0.611477438727479
 21
0.816759603469641
 31
0
 12
0.639346798409349
 22
0.809014869888476
 32
0
 13
0.608380843207271
 23
0.802819083023544
 33
0
  0
SOLID
  8
0
 62
8
 10
0.630057011848726
 20
0.781133828996283
 30
0
 11
0.639346798409349
 21
0.809014869888476
 31
0
 12
0.630057011848726
 22
0.781133828996283
 32
0
 13
0.608380843207271
 23
0.802819083023544
 33
0
  0
SOLID
  8
0
 62
8
 10
0.630057011848726
 20
0.781133828996283
 30
0
 11
0.608380843207271
 21
0.802819083023544
 31
0
 12
0.630057011848726
 22
0.781133828996283
 32
0
 13
0.59599446112644
 23
0.778035935563817
 33
0
  0
SOLID
  8
0
 62
8
 10
0.62386382080831
 20
0.767193308550186
 30
0
 11
0.630057011848726
 21
0.781133828996283
 31
0
 12
0.62386382080831
 22
0.767193308550186
 32
0
 13
0.59599446112644
 23
0.778035935563817
 33
0
  0
SOLID
  8
0
 62
8
 10
0.62386382080831
 20
0.767193308550186
 30
0
 11
0.59599446112644
 21
0.778035935563817
 31
0
 12
0.62386382080831
 22
0.767193308550186
 32
0
 13
0.589801270086025
 23
0.774938042131351
 33
0
  0
SOLID
  8
0
 62
8
 10
0.456647662717091
 20
0.857032218091698
 30
0
 11
0.430326600795325
 21
0.858581164807931
 31
0
 12
0.456647662717091
 22
0.857032218091698
 32
0
 13
0.430326600795325
 23
0.833798017348203
 33
0
  0
SOLID
  8
0
 62
8
 10
0.456647662717091
 20
0.857032218091698
 30
0
 11
0.430326600795325
 21
0.833798017348203
 31
0
 12
0.456647662717091
 22
0.857032218091698
 32
0
 13
0.448906173916572
 23
0.82140644361834
 33
0
  0
SOLID
  8
0
 62
8
 10
0.473678938078234
 20
0.841542750929368
 30
0
 11
0.456647662717091
 21
0.857032218091698
 31
0
 12
0.473678938078234
 22
0.841542750929368
 32
0
 13
0.448906173916572
 23
0.82140644361834
 33
0
  0
SOLID
  8
0
 62
8
 10
0.473678938078234
 20
0.841542750929368
 30
0
 11
0.448906173916572
 21
0.82140644361834
 31
0
 12
0.473678938078234
 22
0.841542750929368
 32
0
 13
0.465937449277715
 23
0.807465923172243
 33
0
  0
SOLID
  8
0
 62
8
 10
0.487613617919169
 20
0.827602230483271
 30
0
 11
0.473678938078234
 21
0.841542750929368
 31
0
 12
0.487613617919169
 22
0.827602230483271
 32
0
 13
0.465937449277715
 23
0.807465923172243
 33
0
  0
SOLID
  8
0
 62
8
 10
0.487613617919169
 20
0.827602230483271
 30
0
 11
0.465937449277715
 21
0.807465923172243
 31
0
 12
0.487613617919169
 22
0.827602230483271
 32
0
 13
0.47213064031813
 23
0.793525402726146
 33
0
  0
SOLID
  8
0
 62
8
 10
0.620767225288102
 20
0.750154894671623
 30
0
 11
0.62386382080831
 21
0.767193308550186
 31
0
 12
0.620767225288102
 22
0.750154894671623
 32
0
 13
0.589801270086025
 23
0.774938042131351
 33
0
  0
SOLID
  8
0
 62
8
 10
0.608380843207271
 20
0.699039653035936
 30
0
 11
0.616122332007791
 21
0.669609665427509
 31
0
 12
0.608380843207271
 22
0.699039653035936
 32
0
 13
0.645539989449765
 23
0.683550185873606
 33
0
  0
SOLID
  8
0
 62
8
 10
0.608380843207271
 20
0.699039653035936
 30
0
 11
0.645539989449765
 21
0.683550185873606
 31
0
 12
0.608380843207271
 22
0.699039653035936
 32
0
 13
0.642443393929557
 23
0.702137546468402
 33
0
  0
SOLID
  8
0
 62
8
 10
0.608380843207271
 20
0.699039653035936
 30
0
 11
0.642443393929557
 21
0.702137546468402
 31
0
 12
0.608380843207271
 22
0.699039653035936
 32
0
 13
0.630057011848726
 23
0.720724907063197
 33
0
  0
SOLID
  8
0
 62
8
 10
0.600639354406752
 20
0.714529120198265
 30
0
 11
0.608380843207271
 21
0.699039653035936
 31
0
 12
0.600639354406752
 22
0.714529120198265
 32
0
 13
0.630057011848726
 23
0.720724907063197
 33
0
  0
SOLID
  8
0
 62
8
 10
0.600639354406752
 20
0.714529120198265
 30
0
 11
0.630057011848726
 21
0.720724907063197
 31
0
 12
0.600639354406752
 22
0.714529120198265
 32
0
 13
0.620767225288102
 23
0.739312267657993
 33
0
  0
SOLID
  8
0
 62
8
 10
0.589801270086025
 20
0.72227385377943
 30
0
 11
0.600639354406752
 21
0.714529120198265
 31
0
 12
0.589801270086025
 22
0.72227385377943
 32
0
 13
0.620767225288102
 23
0.739312267657993
 33
0
  0
SOLID
  8
0
 62
8
 10
0.571221696964778
 20
0.799721189591078
 30
0
 11
0.538707444002597
 21
0.804368029739777
 31
0
 12
0.571221696964778
 22
0.799721189591078
 32
0
 13
0.530965955202077
 23
0.802819083023544
 33
0
  0
SOLID
  8
0
 62
8
 10
0.510838084320727
 20
0.80591697645601
 30
0
 11
0.487613617919169
 21
0.827602230483271
 31
0
 12
0.510838084320727
 22
0.80591697645601
 32
0
 13
0.47213064031813
 23
0.793525402726146
 33
0
  0
SOLID
  8
0
 62
8
 10
0.589801270086025
 20
0.72227385377943
 30
0
 11
0.620767225288102
 21
0.739312267657993
 31
0
 12
0.589801270086025
 22
0.72227385377943
 32
0
 13
0.620767225288102
 23
0.750154894671623
 33
0
  0
SOLID
  8
0
 62
8
 10
0.510838084320727
 20
0.80591697645601
 30
0
 11
0.47213064031813
 21
0.793525402726146
 31
0
 12
0.510838084320727
 22
0.80591697645601
 32
0
 13
0.479872129118649
 23
0.774938042131351
 33
0
  0
SOLID
  8
0
 62
8
 10
0.510838084320727
 20
0.80591697645601
 30
0
 11
0.479872129118649
 21
0.774938042131351
 31
0
 12
0.510838084320727
 22
0.80591697645601
 32
0
 13
0.512386382080831
 23
0.765644361833953
 33
0
  0
SOLID
  8
0
 62
8
 10
0.530965955202077
 20
0.802819083023544
 30
0
 11
0.510838084320727
 21
0.80591697645601
 31
0
 12
0.530965955202077
 22
0.802819083023544
 32
0
 13
0.512386382080831
 23
0.765644361833953
 33
0
  0
SOLID
  8
0
 62
8
 10
0.530965955202077
 20
0.802819083023544
 30
0
 11
0.512386382080831
 21
0.765644361833953
 31
0
 12
0.530965955202077
 22
0.802819083023544
 32
0
 13
0.532514252962181
 23
0.757899628252788
 33
0
  0
SOLID
  8
0
 62
8
 10
0.589801270086025
 20
0.72227385377943
 30
0
 11
0.620767225288102
 21
0.750154894671623
 31
0
 12
0.589801270086025
 22
0.72227385377943
 32
0
 13
0.589801270086025
 23
0.774938042131351
 33
0
  0
SOLID
  8
0
 62
8
 10
0.569673399204674
 20
0.736214374225527
 30
0
 11
0.589801270086025
 21
0.72227385377943
 31
0
 12
0.569673399204674
 22
0.736214374225527
 32
0
 13
0.589801270086025
 23
0.774938042131351
 33
0
  0
SOLID
  8
0
 62
8
 10
0.557287017123843
 20
0.743959107806692
 30
0
 11
0.569673399204674
 21
0.736214374225527
 31
0
 12
0.557287017123843
 22
0.743959107806692
 32
0
 13
0.589801270086025
 23
0.774938042131351
 33
0
  0
SOLID
  8
0
 62
8
 10
0.557287017123843
 20
0.743959107806692
 30
0
 11
0.589801270086025
 21
0.774938042131351
 31
0
 12
0.557287017123843
 22
0.743959107806692
 32
0
 13
0.580511483525402
 23
0.782682775712516
 33
0
  0
SOLID
  8
0
 62
8
 10
0.580511483525402
 20
0.782682775712516
 30
0
 11
0.571221696964778
 21
0.799721189591078
 31
0
 12
0.580511483525402
 22
0.782682775712516
 32
0
 13
0.530965955202077
 23
0.802819083023544
 33
0
  0
SOLID
  8
0
 62
8
 10
0.580511483525402
 20
0.782682775712516
 30
0
 11
0.530965955202077
 21
0.802819083023544
 31
0
 12
0.580511483525402
 22
0.782682775712516
 32
0
 13
0.532514252962181
 23
0.757899628252788
 33
0
  0
SOLID
  8
0
 62
8
 10
0.557287017123843
 20
0.743959107806692
 30
0
 11
0.580511483525402
 21
0.782682775712516
 31
0
 12
0.557287017123843
 22
0.743959107806692
 32
0
 13
0.532514252962181
 23
0.757899628252788
 33
0
  0
SOLID
  8
0
 62
8
 10
0.657926371530596
 20
0.988692688971499
 30
0
 11
0.647088287209868
 21
0.982496902106568
 31
0
 12
0.657926371530596
 22
0.988692688971499
 32
0
 13
0.642443393929557
 23
0.976301115241636
 33
0
  0
SOLID
  8
0
 62
8
 10
0.495355106719688
 20
0.991790582403965
 30
0
 11
0.484517022398961
 21
0.993339529120198
 31
0
 12
0.495355106719688
 22
0.991790582403965
 32
0
 13
0.475227235838338
 23
0.987143742255266
 33
0
  0
SOLID
  8
0
 62
8
 10
0.475227235838338
 20
0.987143742255266
 30
0
 11
0.47213064031813
 21
0.971654275092937
 31
0
 12
0.475227235838338
 22
0.987143742255266
 32
0
 13
0.475227235838338
 23
0.965458488228005
 33
0
  0
SOLID
  8
0
 62
8
 10
0.628508714088622
 20
0.960811648079306
 30
0
 11
0.62386382080831
 21
0.960811648079306
 31
0
 12
0.628508714088622
 22
0.960811648079306
 32
0
 13
0.608380843207271
 23
0.951517967781908
 33
0
  0
SOLID
  8
0
 62
8
 10
0.681150837932154
 20
0.968556381660471
 30
0
 11
0.690440624492777
 21
0.985594795539034
 31
0
 12
0.681150837932154
 22
0.968556381660471
 32
0
 13
0.671861051371531
 23
0.990241635687732
 33
0
  0
SOLID
  8
0
 62
8
 10
0.608380843207271
 20
0.903500619578687
 30
0
 11
0.62386382080831
 21
0.903500619578687
 31
0
 12
0.608380843207271
 22
0.903500619578687
 32
0
 13
0.634701905129037
 23
0.90504956629492
 33
0
  0
SOLID
  8
0
 62
8
 10
0.551093826083428
 20
0.918990086741016
 30
0
 11
0.572769994724882
 21
0.912794299876084
 31
0
 12
0.551093826083428
 22
0.918990086741016
 32
0
 13
0.578963185765298
 23
0.912794299876084
 33
0
  0
SOLID
  8
0
 62
8
 10
0.634701905129037
 20
0.90504956629492
 30
0
 11
0.648636584969972
 21
0.914343246592317
 31
0
 12
0.634701905129037
 22
0.90504956629492
 32
0
 13
0.65173318049018
 23
0.928283767038414
 33
0
  0
SOLID
  8
0
 62
8
 10
0.65173318049018
 20
0.928283767038414
 30
0
 11
0.661022967050803
 21
0.939126394052045
 31
0
 12
0.65173318049018
 22
0.928283767038414
 32
0
 13
0.664119562571011
 23
0.956164807930607
 33
0
  0
SOLID
  8
0
 62
8
 10
0.681150837932154
 20
0.968556381660471
 30
0
 11
0.671861051371531
 21
0.990241635687732
 31
0
 12
0.681150837932154
 22
0.968556381660471
 32
0
 13
0.657926371530596
 23
0.988692688971499
 33
0
  0
SOLID
  8
0
 62
8
 10
0.507741488800519
 20
0.984045848822801
 30
0
 11
0.495355106719688
 21
0.991790582403965
 31
0
 12
0.507741488800519
 22
0.984045848822801
 32
0
 13
0.475227235838338
 23
0.987143742255266
 33
0
  0
SOLID
  8
0
 62
8
 10
0.664119562571011
 20
0.956164807930607
 30
0
 11
0.681150837932154
 21
0.968556381660471
 31
0
 12
0.664119562571011
 22
0.956164807930607
 32
0
 13
0.657926371530596
 23
0.988692688971499
 33
0
  0
SOLID
  8
0
 62
8
 10
0.664119562571011
 20
0.956164807930607
 30
0
 11
0.657926371530596
 21
0.988692688971499
 31
0
 12
0.664119562571011
 22
0.956164807930607
 32
0
 13
0.642443393929557
 23
0.976301115241636
 33
0
  0
SOLID
  8
0
 62
8
 10
0.664119562571011
 20
0.956164807930607
 30
0
 11
0.642443393929557
 21
0.976301115241636
 31
0
 12
0.664119562571011
 22
0.956164807930607
 32
0
 13
0.628508714088622
 23
0.960811648079306
 33
0
  0
SOLID
  8
0
 62
8
 10
0.507741488800519
 20
0.984045848822801
 30
0
 11
0.475227235838338
 21
0.987143742255266
 31
0
 12
0.507741488800519
 22
0.984045848822801
 32
0
 13
0.475227235838338
 23
0.965458488228005
 33
0
  0
SOLID
  8
0
 62
8
 10
0.507741488800519
 20
0.984045848822801
 30
0
 11
0.475227235838338
 21
0.965458488228005
 31
0
 12
0.507741488800519
 22
0.984045848822801
 32
0
 13
0.492258511199481
 23
0.949969021065675
 33
0
  0
SOLID
  8
0
 62
8
 10
0.518579573121246
 20
0.977850061957869
 30
0
 11
0.507741488800519
 21
0.984045848822801
 31
0
 12
0.518579573121246
 22
0.977850061957869
 32
0
 13
0.492258511199481
 23
0.949969021065675
 33
0
  0
SOLID
  8
0
 62
8
 10
0.65173318049018
 20
0.928283767038414
 30
0
 11
0.664119562571011
 21
0.956164807930607
 31
0
 12
0.65173318049018
 22
0.928283767038414
 32
0
 13
0.628508714088622
 23
0.960811648079306
 33
0
  0
SOLID
  8
0
 62
8
 10
0.518579573121246
 20
0.977850061957869
 30
0
 11
0.492258511199481
 21
0.949969021065675
 31
0
 12
0.518579573121246
 22
0.977850061957869
 32
0
 13
0.517031275361143
 23
0.937577447335812
 33
0
  0
SOLID
  8
0
 62
8
 10
0.534062550722285
 20
0.970105328376704
 30
0
 11
0.518579573121246
 21
0.977850061957869
 31
0
 12
0.534062550722285
 22
0.970105328376704
 32
0
 13
0.517031275361143
 23
0.937577447335812
 33
0
  0
SOLID
  8
0
 62
8
 10
0.534062550722285
 20
0.970105328376704
 30
0
 11
0.517031275361143
 21
0.937577447335812
 31
0
 12
0.534062550722285
 22
0.970105328376704
 32
0
 13
0.534062550722285
 23
0.93138166047088
 33
0
  0
SOLID
  8
0
 62
8
 10
0.546448932803116
 20
0.965458488228005
 30
0
 11
0.534062550722285
 21
0.970105328376704
 31
0
 12
0.546448932803116
 22
0.965458488228005
 32
0
 13
0.534062550722285
 23
0.93138166047088
 33
0
  0
SOLID
  8
0
 62
8
 10
0.594446163366336
 20
0.909696406443618
 30
0
 11
0.608380843207271
 21
0.903500619578687
 31
0
 12
0.594446163366336
 22
0.909696406443618
 32
0
 13
0.634701905129037
 23
0.90504956629492
 33
0
  0
SOLID
  8
0
 62
8
 10
0.565028505924363
 20
0.959262701363073
 30
0
 11
0.546448932803116
 21
0.965458488228005
 31
0
 12
0.565028505924363
 22
0.959262701363073
 32
0
 13
0.534062550722285
 23
0.93138166047088
 33
0
  0
SOLID
  8
0
 62
8
 10
0.565028505924363
 20
0.959262701363073
 30
0
 11
0.534062550722285
 21
0.93138166047088
 31
0
 12
0.565028505924363
 22
0.959262701363073
 32
0
 13
0.551093826083428
 23
0.918990086741016
 33
0
  0
SOLID
  8
0
 62
8
 10
0.551093826083428
 20
0.918990086741016
 30
0
 11
0.578963185765298
 21
0.912794299876084
 31
0
 12
0.551093826083428
 22
0.918990086741016
 32
0
 13
0.594446163366336
 23
0.909696406443618
 33
0
  0
SOLID
  8
0
 62
8
 10
0.583608079045609
 20
0.954615861214374
 30
0
 11
0.565028505924363
 21
0.959262701363073
 31
0
 12
0.583608079045609
 22
0.954615861214374
 32
0
 13
0.551093826083428
 23
0.918990086741016
 33
0
  0
SOLID
  8
0
 62
8
 10
0.583608079045609
 20
0.954615861214374
 30
0
 11
0.551093826083428
 21
0.918990086741016
 31
0
 12
0.583608079045609
 22
0.954615861214374
 32
0
 13
0.594446163366336
 23
0.909696406443618
 33
0
  0
SOLID
  8
0
 62
8
 10
0.608380843207271
 20
0.951517967781908
 30
0
 11
0.583608079045609
 21
0.954615861214374
 31
0
 12
0.608380843207271
 22
0.951517967781908
 32
0
 13
0.594446163366336
 23
0.909696406443618
 33
0
  0
SOLID
  8
0
 62
8
 10
0.65173318049018
 20
0.928283767038414
 30
0
 11
0.628508714088622
 21
0.960811648079306
 31
0
 12
0.65173318049018
 22
0.928283767038414
 32
0
 13
0.608380843207271
 23
0.951517967781908
 33
0
  0
SOLID
  8
0
 62
8
 10
0.634701905129037
 20
0.90504956629492
 30
0
 11
0.65173318049018
 21
0.928283767038414
 31
0
 12
0.634701905129037
 22
0.90504956629492
 32
0
 13
0.608380843207271
 23
0.951517967781908
 33
0
  0
SOLID
  8
0
 62
8
 10
0.594446163366336
 20
0.909696406443618
 30
0
 11
0.634701905129037
 21
0.90504956629492
 31
0
 12
0.594446163366336
 22
0.909696406443618
 32
0
 13
0.608380843207271
 23
0.951517967781908
 33
0
  0
SOLID
  8
0
 62
8
 10
0.634701905129037
 20
0.607651796778191
 30
0
 11
0.636250202889141
 21
0.620043370508055
 31
0
 12
0.634701905129037
 22
0.607651796778191
 32
0
 13
0.620767225288102
 23
0.620043370508055
 33
0
  0
SOLID
  8
0
 62
8
 10
0.696633815533192
 20
0.773389095415118
 30
0
 11
0.702827006573608
 21
0.787329615861214
 31
0
 12
0.696633815533192
 22
0.773389095415118
 32
0
 13
0.702827006573608
 23
0.791976456009913
 33
0
  0
SOLID
  8
0
 62
8
 10
0.659474669290699
 20
0.542596034696406
 30
0
 11
0.661022967050803
 21
0.531753407682776
 31
0
 12
0.659474669290699
 22
0.542596034696406
 32
0
 13
0.678054242411946
 23
0.534851301115242
 33
0
  0
SOLID
  8
0
 62
8
 10
0.729148068495374
 20
0.730018587360595
 30
0
 11
0.721406579694855
 21
0.723822800495663
 31
0
 12
0.729148068495374
 22
0.730018587360595
 32
0
 13
0.718309984174647
 23
0.711431226765799
 33
0
  0
SOLID
  8
0
 62
8
 10
0.792628276659633
 20
0.80591697645601
 30
0
 11
0.784886787859114
 21
0.810563816604709
 31
0
 12
0.792628276659633
 22
0.80591697645601
 32
0
 13
0.770952108018179
 23
0.80591697645601
 33
0
  0
SOLID
  8
0
 62
8
 10
0.704375304333712
 20
0.954615861214374
 30
0
 11
0.690440624492777
 21
0.942224287484511
 31
0
 12
0.704375304333712
 22
0.954615861214374
 32
0
 13
0.687344028972569
 23
0.936028500619579
 33
0
  0
SOLID
  8
0
 62
8
 10
0.753920832657036
 20
0.773389095415118
 30
0
 11
0.744631046096413
 21
0.767193308550186
 31
0
 12
0.753920832657036
 22
0.773389095415118
 32
0
 13
0.738437855055997
 23
0.753252788104089
 33
0
  0
SOLID
  8
0
 62
8
 10
0.770952108018179
 20
0.80591697645601
 30
0
 11
0.770952108018179
 21
0.787329615861214
 31
0
 12
0.770952108018179
 22
0.80591697645601
 32
0
 13
0.772500405778283
 23
0.77958488228005
 33
0
  0
SOLID
  8
0
 62
8
 10
0.634701905129037
 20
0.607651796778191
 30
0
 11
0.620767225288102
 21
0.620043370508055
 31
0
 12
0.634701905129037
 22
0.607651796778191
 32
0
 13
0.608380843207271
 23
0.610749690210657
 33
0
  0
SOLID
  8
0
 62
8
 10
0.681150837932154
 20
0.906598513011152
 30
0
 11
0.668764455851323
 21
0.898853779429988
 31
0
 12
0.681150837932154
 22
0.906598513011152
 32
0
 13
0.665667860331115
 23
0.884913258983891
 33
0
  0
SOLID
  8
0
 62
8
 10
0.72759977073527
 20
0.940675340768278
 30
0
 11
0.718309984174647
 21
0.951517967781908
 31
0
 12
0.72759977073527
 22
0.940675340768278
 32
0
 13
0.704375304333712
 23
0.954615861214374
 33
0
  0
SOLID
  8
0
 62
8
 10
0.70747189985392
 20
0.655669144981413
 30
0
 11
0.718309984174647
 21
0.663413878562578
 31
0
 12
0.70747189985392
 22
0.655669144981413
 32
0
 13
0.730696366255478
 23
0.672707558859975
 33
0
  0
SOLID
  8
0
 62
8
 10
0.670312753611427
 20
0.68045229244114
 30
0
 11
0.671861051371531
 21
0.661864931846345
 31
0
 12
0.670312753611427
 22
0.68045229244114
 32
0
 13
0.674957646891738
 23
0.651022304832714
 33
0
  0
SOLID
  8
0
 62
8
 10
0.656378073770492
 20
0.726920693928129
 30
0
 11
0.661022967050803
 21
0.709882280049566
 31
0
 12
0.656378073770492
 22
0.726920693928129
 32
0
 13
0.665667860331115
 23
0.697490706319703
 33
0
  0
SOLID
  8
0
 62
8
 10
0.670312753611427
 20
0.799721189591078
 30
0
 11
0.665667860331115
 21
0.791976456009913
 31
0
 12
0.670312753611427
 22
0.799721189591078
 32
0
 13
0.665667860331115
 23
0.768742255266419
 33
0
  0
SOLID
  8
0
 62
8
 10
0.659474669290699
 20
0.542596034696406
 30
0
 11
0.678054242411946
 21
0.534851301115242
 31
0
 12
0.659474669290699
 22
0.542596034696406
 32
0
 13
0.684247433452362
 23
0.562732342007435
 33
0
  0
SOLID
  8
0
 62
8
 10
0.691988922252881
 20
0.760997521685254
 30
0
 11
0.696633815533192
 21
0.773389095415118
 31
0
 12
0.691988922252881
 22
0.760997521685254
 32
0
 13
0.702827006573608
 23
0.791976456009913
 33
0
  0
SOLID
  8
0
 62
8
 10
0.665667860331115
 20
0.86322800495663
 30
0
 11
0.667216158091219
 21
0.843091697645601
 31
0
 12
0.665667860331115
 22
0.86322800495663
 32
0
 13
0.670312753611427
 23
0.830700123915737
 33
0
  0
SOLID
  8
0
 62
8
 10
0.702827006573608
 20
0.80591697645601
 30
0
 11
0.702827006573608
 21
0.816759603469641
 31
0
 12
0.702827006573608
 22
0.80591697645601
 32
0
 13
0.696633815533192
 23
0.838444857496902
 33
0
  0
SOLID
  8
0
 62
8
 10
0.792628276659633
 20
0.80591697645601
 30
0
 11
0.770952108018179
 21
0.80591697645601
 31
0
 12
0.792628276659633
 22
0.80591697645601
 32
0
 13
0.772500405778283
 23
0.77958488228005
 33
0
  0
SOLID
  8
0
 62
8
 10
0.801918063220256
 20
0.793525402726146
 30
0
 11
0.792628276659633
 21
0.80591697645601
 31
0
 12
0.801918063220256
 22
0.793525402726146
 32
0
 13
0.772500405778283
 23
0.77958488228005
 33
0
  0
SOLID
  8
0
 62
8
 10
0.801918063220256
 20
0.771840148698885
 30
0
 11
0.801918063220256
 21
0.793525402726146
 31
0
 12
0.801918063220256
 22
0.771840148698885
 32
0
 13
0.772500405778283
 23
0.77958488228005
 33
0
  0
SOLID
  8
0
 62
8
 10
0.599091056646648
 20
0.592162329615861
 30
0
 11
0.609929140967375
 21
0.576672862453532
 31
0
 12
0.599091056646648
 22
0.592162329615861
 32
0
 13
0.62386382080831
 23
0.568928128872367
 33
0
  0
SOLID
  8
0
 62
8
 10
0.730696366255478
 20
0.672707558859975
 30
0
 11
0.743082748336309
 21
0.685099132589839
 31
0
 12
0.730696366255478
 22
0.672707558859975
 32
0
 13
0.747727641616621
 23
0.702137546468402
 33
0
  0
SOLID
  8
0
 62
8
 10
0.794176574419737
 20
0.753252788104089
 30
0
 11
0.801918063220256
 21
0.771840148698885
 31
0
 12
0.794176574419737
 22
0.753252788104089
 32
0
 13
0.772500405778283
 23
0.77958488228005
 33
0
  0
SOLID
  8
0
 62
8
 10
0.722954877454958
 20
0.906598513011152
 30
0
 11
0.726051472975166
 21
0.914343246592317
 31
0
 12
0.722954877454958
 22
0.906598513011152
 32
0
 13
0.72759977073527
 23
0.940675340768278
 33
0
  0
SOLID
  8
0
 62
8
 10
0.753920832657036
 20
0.773389095415118
 30
0
 11
0.738437855055997
 21
0.753252788104089
 31
0
 12
0.753920832657036
 22
0.773389095415118
 32
0
 13
0.738437855055997
 23
0.742410161090459
 33
0
  0
SOLID
  8
0
 62
8
 10
0.662571264810907
 20
0.760997521685254
 30
0
 11
0.656378073770492
 21
0.747057001239157
 31
0
 12
0.662571264810907
 22
0.760997521685254
 32
0
 13
0.656378073770492
 23
0.726920693928129
 33
0
  0
SOLID
  8
0
 62
8
 10
0.738437855055997
 20
0.742410161090459
 30
0
 11
0.729148068495374
 21
0.730018587360595
 31
0
 12
0.738437855055997
 22
0.742410161090459
 32
0
 13
0.718309984174647
 23
0.711431226765799
 33
0
  0
SOLID
  8
0
 62
8
 10
0.674957646891738
 20
0.651022304832714
 30
0
 11
0.659474669290699
 21
0.629337050805452
 31
0
 12
0.674957646891738
 22
0.651022304832714
 32
0
 13
0.664119562571011
 23
0.615396530359356
 33
0
  0
SOLID
  8
0
 62
8
 10
0.634701905129037
 20
0.607651796778191
 30
0
 11
0.608380843207271
 21
0.610749690210657
 31
0
 12
0.634701905129037
 22
0.607651796778191
 32
0
 13
0.599091056646648
 23
0.592162329615861
 33
0
  0
SOLID
  8
0
 62
8
 10
0.634701905129037
 20
0.607651796778191
 30
0
 11
0.599091056646648
 21
0.592162329615861
 31
0
 12
0.634701905129037
 22
0.607651796778191
 32
0
 13
0.62386382080831
 23
0.568928128872367
 33
0
  0
SOLID
  8
0
 62
8
 10
0.647088287209868
 20
0.592162329615861
 30
0
 11
0.634701905129037
 21
0.607651796778191
 31
0
 12
0.647088287209868
 22
0.592162329615861
 32
0
 13
0.62386382080831
 23
0.568928128872367
 33
0
  0
SOLID
  8
0
 62
8
 10
0.647088287209868
 20
0.592162329615861
 30
0
 11
0.62386382080831
 21
0.568928128872367
 31
0
 12
0.647088287209868
 22
0.592162329615861
 32
0
 13
0.640895096169453
 23
0.561183395291202
 33
0
  0
SOLID
  8
0
 62
8
 10
0.657926371530596
 20
0.579770755885998
 30
0
 11
0.647088287209868
 21
0.592162329615861
 31
0
 12
0.657926371530596
 22
0.579770755885998
 32
0
 13
0.640895096169453
 23
0.561183395291202
 33
0
  0
SOLID
  8
0
 62
8
 10
0.657926371530596
 20
0.579770755885998
 30
0
 11
0.640895096169453
 21
0.561183395291202
 31
0
 12
0.657926371530596
 22
0.579770755885998
 32
0
 13
0.659474669290699
 23
0.542596034696406
 33
0
  0
SOLID
  8
0
 62
8
 10
0.657926371530596
 20
0.579770755885998
 30
0
 11
0.659474669290699
 21
0.542596034696406
 31
0
 12
0.657926371530596
 22
0.579770755885998
 32
0
 13
0.684247433452362
 23
0.562732342007435
 33
0
  0
SOLID
  8
0
 62
8
 10
0.657926371530596
 20
0.579770755885998
 30
0
 11
0.684247433452362
 21
0.562732342007435
 31
0
 12
0.657926371530596
 22
0.579770755885998
 32
0
 13
0.687344028972569
 23
0.582868649318463
 33
0
  0
SOLID
  8
0
 62
8
 10
0.667216158091219
 20
0.595260223048327
 30
0
 11
0.657926371530596
 21
0.579770755885998
 31
0
 12
0.667216158091219
 22
0.595260223048327
 32
0
 13
0.687344028972569
 23
0.582868649318463
 33
0
  0
SOLID
  8
0
 62
8
 10
0.667216158091219
 20
0.595260223048327
 30
0
 11
0.687344028972569
 21
0.582868649318463
 31
0
 12
0.667216158091219
 22
0.595260223048327
 32
0
 13
0.690440624492777
 23
0.599907063197026
 33
0
  0
SOLID
  8
0
 62
8
 10
0.664119562571011
 20
0.615396530359356
 30
0
 11
0.667216158091219
 21
0.595260223048327
 31
0
 12
0.664119562571011
 22
0.615396530359356
 32
0
 13
0.690440624492777
 23
0.599907063197026
 33
0
  0
SOLID
  8
0
 62
8
 10
0.664119562571011
 20
0.615396530359356
 30
0
 11
0.690440624492777
 21
0.599907063197026
 31
0
 12
0.664119562571011
 22
0.615396530359356
 32
0
 13
0.698182113293296
 23
0.626239157372986
 33
0
  0
SOLID
  8
0
 62
8
 10
0.674957646891738
 20
0.651022304832714
 30
0
 11
0.664119562571011
 21
0.615396530359356
 31
0
 12
0.674957646891738
 22
0.651022304832714
 32
0
 13
0.698182113293296
 23
0.626239157372986
 33
0
  0
SOLID
  8
0
 62
8
 10
0.674957646891738
 20
0.651022304832714
 30
0
 11
0.698182113293296
 21
0.626239157372986
 31
0
 12
0.674957646891738
 22
0.651022304832714
 32
0
 13
0.70747189985392
 23
0.655669144981413
 33
0
  0
SOLID
  8
0
 62
8
 10
0.72759977073527
 20
0.940675340768278
 30
0
 11
0.704375304333712
 21
0.954615861214374
 31
0
 12
0.72759977073527
 22
0.940675340768278
 32
0
 13
0.687344028972569
 23
0.936028500619579
 33
0
  0
SOLID
  8
0
 62
8
 10
0.77559700129849
 20
0.73776332094176
 30
0
 11
0.794176574419737
 21
0.753252788104089
 31
0
 12
0.77559700129849
 22
0.73776332094176
 32
0
 13
0.772500405778283
 23
0.77958488228005
 33
0
  0
SOLID
  8
0
 62
8
 10
0.77559700129849
 20
0.73776332094176
 30
0
 11
0.772500405778283
 21
0.77958488228005
 31
0
 12
0.77559700129849
 22
0.73776332094176
 32
0
 13
0.753920832657036
 23
0.773389095415118
 33
0
  0
SOLID
  8
0
 62
8
 10
0.77559700129849
 20
0.73776332094176
 30
0
 11
0.753920832657036
 21
0.773389095415118
 31
0
 12
0.77559700129849
 22
0.73776332094176
 32
0
 13
0.738437855055997
 23
0.742410161090459
 33
0
  0
SOLID
  8
0
 62
8
 10
0.757017428177244
 20
0.719175960346964
 30
0
 11
0.77559700129849
 21
0.73776332094176
 31
0
 12
0.757017428177244
 22
0.719175960346964
 32
0
 13
0.738437855055997
 23
0.742410161090459
 33
0
  0
SOLID
  8
0
 62
8
 10
0.757017428177244
 20
0.719175960346964
 30
0
 11
0.738437855055997
 21
0.742410161090459
 31
0
 12
0.757017428177244
 22
0.719175960346964
 32
0
 13
0.718309984174647
 23
0.711431226765799
 33
0
  0
SOLID
  8
0
 62
8
 10
0.747727641616621
 20
0.702137546468402
 30
0
 11
0.757017428177244
 21
0.719175960346964
 31
0
 12
0.747727641616621
 22
0.702137546468402
 32
0
 13
0.718309984174647
 23
0.711431226765799
 33
0
  0
SOLID
  8
0
 62
8
 10
0.747727641616621
 20
0.702137546468402
 30
0
 11
0.718309984174647
 21
0.711431226765799
 31
0
 12
0.747727641616621
 22
0.702137546468402
 32
0
 13
0.712116793134231
 23
0.705235439900867
 33
0
  0
SOLID
  8
0
 62
8
 10
0.730696366255478
 20
0.672707558859975
 30
0
 11
0.747727641616621
 21
0.702137546468402
 31
0
 12
0.730696366255478
 22
0.672707558859975
 32
0
 13
0.712116793134231
 23
0.705235439900867
 33
0
  0
SOLID
  8
0
 62
8
 10
0.730696366255478
 20
0.672707558859975
 30
0
 11
0.712116793134231
 21
0.705235439900867
 31
0
 12
0.730696366255478
 22
0.672707558859975
 32
0
 13
0.6997304110534
 23
0.700588599752169
 33
0
  0
SOLID
  8
0
 62
8
 10
0.665667860331115
 20
0.768742255266419
 30
0
 11
0.662571264810907
 21
0.760997521685254
 31
0
 12
0.665667860331115
 22
0.768742255266419
 32
0
 13
0.656378073770492
 23
0.726920693928129
 33
0
  0
SOLID
  8
0
 62
8
 10
0.670312753611427
 20
0.68045229244114
 30
0
 11
0.674957646891738
 21
0.651022304832714
 31
0
 12
0.670312753611427
 22
0.68045229244114
 32
0
 13
0.70747189985392
 23
0.655669144981413
 33
0
  0
SOLID
  8
0
 62
8
 10
0.70747189985392
 20
0.655669144981413
 30
0
 11
0.730696366255478
 21
0.672707558859975
 31
0
 12
0.70747189985392
 22
0.655669144981413
 32
0
 13
0.6997304110534
 23
0.700588599752169
 33
0
  0
SOLID
  8
0
 62
8
 10
0.670312753611427
 20
0.68045229244114
 30
0
 11
0.70747189985392
 21
0.655669144981413
 31
0
 12
0.670312753611427
 22
0.68045229244114
 32
0
 13
0.6997304110534
 23
0.700588599752169
 33
0
  0
SOLID
  8
0
 62
8
 10
0.665667860331115
 20
0.697490706319703
 30
0
 11
0.670312753611427
 21
0.68045229244114
 31
0
 12
0.665667860331115
 22
0.697490706319703
 32
0
 13
0.6997304110534
 23
0.700588599752169
 33
0
  0
SOLID
  8
0
 62
8
 10
0.665667860331115
 20
0.697490706319703
 30
0
 11
0.6997304110534
 21
0.700588599752169
 31
0
 12
0.665667860331115
 22
0.697490706319703
 32
0
 13
0.695085517773089
 23
0.711431226765799
 33
0
  0
SOLID
  8
0
 62
8
 10
0.656378073770492
 20
0.726920693928129
 30
0
 11
0.665667860331115
 21
0.697490706319703
 31
0
 12
0.656378073770492
 22
0.726920693928129
 32
0
 13
0.695085517773089
 23
0.711431226765799
 33
0
  0
SOLID
  8
0
 62
8
 10
0.656378073770492
 20
0.726920693928129
 30
0
 11
0.695085517773089
 21
0.711431226765799
 31
0
 12
0.656378073770492
 22
0.726920693928129
 32
0
 13
0.687344028972569
 23
0.743959107806692
 33
0
  0
SOLID
  8
0
 62
8
 10
0.665667860331115
 20
0.768742255266419
 30
0
 11
0.656378073770492
 21
0.726920693928129
 31
0
 12
0.665667860331115
 22
0.768742255266419
 32
0
 13
0.687344028972569
 23
0.743959107806692
 33
0
  0
SOLID
  8
0
 62
8
 10
0.665667860331115
 20
0.768742255266419
 30
0
 11
0.687344028972569
 21
0.743959107806692
 31
0
 12
0.665667860331115
 22
0.768742255266419
 32
0
 13
0.691988922252881
 23
0.760997521685254
 33
0
  0
SOLID
  8
0
 62
8
 10
0.665667860331115
 20
0.768742255266419
 30
0
 11
0.691988922252881
 21
0.760997521685254
 31
0
 12
0.665667860331115
 22
0.768742255266419
 32
0
 13
0.702827006573608
 23
0.791976456009913
 33
0
  0
SOLID
  8
0
 62
8
 10
0.670312753611427
 20
0.799721189591078
 30
0
 11
0.665667860331115
 21
0.768742255266419
 31
0
 12
0.670312753611427
 22
0.799721189591078
 32
0
 13
0.702827006573608
 23
0.791976456009913
 33
0
  0
SOLID
  8
0
 62
8
 10
0.670312753611427
 20
0.799721189591078
 30
0
 11
0.702827006573608
 21
0.791976456009913
 31
0
 12
0.670312753611427
 22
0.799721189591078
 32
0
 13
0.702827006573608
 23
0.80591697645601
 33
0
  0
SOLID
  8
0
 62
8
 10
0.670312753611427
 20
0.830700123915737
 30
0
 11
0.670312753611427
 21
0.799721189591078
 31
0
 12
0.670312753611427
 22
0.830700123915737
 32
0
 13
0.702827006573608
 23
0.80591697645601
 33
0
  0
SOLID
  8
0
 62
8
 10
0.670312753611427
 20
0.830700123915737
 30
0
 11
0.702827006573608
 21
0.80591697645601
 31
0
 12
0.670312753611427
 22
0.830700123915737
 32
0
 13
0.696633815533192
 23
0.838444857496902
 33
0
  0
SOLID
  8
0
 62
8
 10
0.670312753611427
 20
0.830700123915737
 30
0
 11
0.696633815533192
 21
0.838444857496902
 31
0
 12
0.670312753611427
 22
0.830700123915737
 32
0
 13
0.696633815533192
 23
0.853934324659232
 33
0
  0
SOLID
  8
0
 62
8
 10
0.665667860331115
 20
0.86322800495663
 30
0
 11
0.670312753611427
 21
0.830700123915737
 31
0
 12
0.665667860331115
 22
0.86322800495663
 32
0
 13
0.696633815533192
 23
0.853934324659232
 33
0
  0
SOLID
  8
0
 62
8
 10
0.665667860331115
 20
0.86322800495663
 30
0
 11
0.696633815533192
 21
0.853934324659232
 31
0
 12
0.665667860331115
 22
0.86322800495663
 32
0
 13
0.704375304333712
 23
0.881815365551425
 33
0
  0
SOLID
  8
0
 62
8
 10
0.665667860331115
 20
0.884913258983891
 30
0
 11
0.665667860331115
 21
0.86322800495663
 31
0
 12
0.665667860331115
 22
0.884913258983891
 32
0
 13
0.704375304333712
 23
0.881815365551425
 33
0
  0
SOLID
  8
0
 62
8
 10
0.681150837932154
 20
0.906598513011152
 30
0
 11
0.665667860331115
 21
0.884913258983891
 31
0
 12
0.681150837932154
 22
0.906598513011152
 32
0
 13
0.704375304333712
 23
0.881815365551425
 33
0
  0
SOLID
  8
0
 62
8
 10
0.687344028972569
 20
0.91589219330855
 30
0
 11
0.681150837932154
 21
0.906598513011152
 31
0
 12
0.687344028972569
 22
0.91589219330855
 32
0
 13
0.704375304333712
 23
0.881815365551425
 33
0
  0
SOLID
  8
0
 62
8
 10
0.687344028972569
 20
0.91589219330855
 30
0
 11
0.704375304333712
 21
0.881815365551425
 31
0
 12
0.687344028972569
 22
0.91589219330855
 32
0
 13
0.722954877454958
 23
0.906598513011152
 33
0
  0
SOLID
  8
0
 62
8
 10
0.722954877454958
 20
0.906598513011152
 30
0
 11
0.72759977073527
 21
0.940675340768278
 31
0
 12
0.722954877454958
 22
0.906598513011152
 32
0
 13
0.687344028972569
 23
0.936028500619579
 33
0
  0
SOLID
  8
0
 62
8
 10
0.687344028972569
 20
0.91589219330855
 30
0
 11
0.722954877454958
 21
0.906598513011152
 31
0
 12
0.687344028972569
 22
0.91589219330855
 32
0
 13
0.687344028972569
 23
0.936028500619579
 33
0
  0
SOLID
  8
0
 62
8
 10
0.733792961775686
 20
0.829151177199504
 30
0
 11
0.746179343856517
 21
0.822955390334573
 31
0
 12
0.733792961775686
 22
0.829151177199504
 32
0
 13
0.75546913041714
 23
0.830700123915737
 33
0
  0
SOLID
  8
0
 62
8
 10
0.894815928826489
 20
0.609200743494424
 30
0
 11
0.896364226586593
 21
0.59680916976456
 31
0
 12
0.894815928826489
 22
0.609200743494424
 32
0
 13
0.905654013147216
 23
0.589064436183395
 33
0
  0
SOLID
  8
0
 62
8
 10
0.701278708813504
 20
0.51316604708798
 30
0
 11
0.712116793134231
 21
0.497676579925651
 31
0
 12
0.701278708813504
 22
0.51316604708798
 32
0
 13
0.722954877454959
 23
0.496127633209418
 33
0
  0
SOLID
  8
0
 62
8
 10
0.784886787859114
 20
0.960811648079306
 30
0
 11
0.789531681139425
 21
0.979399008674102
 31
0
 12
0.784886787859114
 22
0.960811648079306
 32
0
 13
0.791079978899529
 23
0.988692688971499
 33
0
  0
SOLID
  8
0
 62
8
 10
0.894815928826489
 20
0.609200743494424
 30
0
 11
0.905654013147216
 21
0.589064436183395
 31
0
 12
0.894815928826489
 22
0.609200743494424
 32
0
 13
0.921136990748255
 23
0.59680916976456
 33
0
  0
SOLID
  8
0
 62
8
 10
0.729148068495374
 20
0.846189591078067
 30
0
 11
0.733792961775686
 21
0.829151177199504
 31
0
 12
0.729148068495374
 22
0.846189591078067
 32
0
 13
0.75546913041714
 23
0.830700123915737
 33
0
  0
SOLID
  8
0
 62
8
 10
0.880881248985554
 20
0.77958488228005
 30
0
 11
0.874688057945139
 21
0.793525402726146
 31
0
 12
0.880881248985554
 22
0.77958488228005
 32
0
 13
0.865398271384515
 23
0.80591697645601
 33
0
  0
SOLID
  8
0
 62
8
 10
0.894815928826489
 20
0.609200743494424
 30
0
 11
0.921136990748255
 21
0.59680916976456
 31
0
 12
0.894815928826489
 22
0.609200743494424
 32
0
 13
0.925781884028567
 23
0.613847583643123
 33
0
  0
SOLID
  8
0
 62
8
 10
0.791079978899529
 20
0.988692688971499
 30
0
 11
0.8
 21
1
 31
0
 12
0.791079978899529
 22
0.988692688971499
 32
0
 13
0.76
 23
1
 33
0
  0
SOLID
  8
0
 62
8
 10
0.894815928826489
 20
0.626239157372986
 30
0
 11
0.894815928826489
 21
0.609200743494424
 31
0
 12
0.894815928826489
 22
0.626239157372986
 32
0
 13
0.925781884028567
 23
0.613847583643123
 33
0
  0
SOLID
  8
0
 62
8
 10
0.729148068495374
 20
0.846189591078067
 30
0
 11
0.75546913041714
 21
0.830700123915737
 31
0
 12
0.729148068495374
 22
0.846189591078067
 32
0
 13
0.763210619217659
 23
0.849287484510533
 33
0
  0
SOLID
  8
0
 62
8
 10
0.73534125953579
 20
0.864776951672863
 30
0
 11
0.729148068495374
 21
0.846189591078067
 31
0
 12
0.73534125953579
 22
0.864776951672863
 32
0
 13
0.763210619217659
 23
0.849287484510533
 33
0
  0
SOLID
  8
0
 62
8
 10
0.750824237136828
 20
0.880266418835192
 30
0
 11
0.73534125953579
 21
0.864776951672863
 31
0
 12
0.750824237136828
 22
0.880266418835192
 32
0
 13
0.763210619217659
 23
0.849287484510533
 33
0
  0
SOLID
  8
0
 62
8
 10
0.750824237136828
 20
0.880266418835192
 30
0
 11
0.763210619217659
 21
0.849287484510533
 31
0
 12
0.750824237136828
 22
0.880266418835192
 32
0
 13
0.772500405778283
 23
0.866325898389095
 33
0
  0
SOLID
  8
0
 62
8
 10
0.763210619217659
 20
0.897304832713755
 30
0
 11
0.750824237136828
 21
0.880266418835192
 31
0
 12
0.763210619217659
 22
0.897304832713755
 32
0
 13
0.772500405778283
 23
0.866325898389095
 33
0
  0
SOLID
  8
0
 62
8
 10
0.763210619217659
 20
0.897304832713755
 30
0
 11
0.772500405778283
 21
0.866325898389095
 31
0
 12
0.763210619217659
 22
0.897304832713755
 32
0
 13
0.78333849009901
 23
0.869423791821561
 33
0
  0
SOLID
  8
0
 62
8
 10
0.701278708813504
 20
0.51316604708798
 30
0
 11
0.722954877454959
 21
0.496127633209418
 31
0
 12
0.701278708813504
 22
0.51316604708798
 32
0
 13
0.736889557295893
 23
0.510068153655514
 33
0
  0
SOLID
  8
0
 62
8
 10
0.781790192338906
 20
0.637081784386617
 30
0
 11
0.792628276659633
 21
0.652571251548947
 31
0
 12
0.781790192338906
 22
0.637081784386617
 32
0
 13
0.801918063220256
 23
0.668060718711276
 33
0
  0
SOLID
  8
0
 62
8
 10
0.853011889303684
 20
0.836895910780669
 30
0
 11
0.846818698263269
 21
0.852385377942999
 31
0
 12
0.853011889303684
 22
0.836895910780669
 32
0
 13
0.832884018422334
 23
0.867874845105328
 33
0
  0
SOLID
  8
0
 62
8
 10
0.894815928826489
 20
0.626239157372986
 30
0
 11
0.925781884028567
 21
0.613847583643123
 31
0
 12
0.894815928826489
 22
0.626239157372986
 32
0
 13
0.927330181788671
 23
0.646375464684015
 33
0
  0
SOLID
  8
0
 62
8
 10
0.891719333306281
 20
0.644826517967782
 30
0
 11
0.894815928826489
 21
0.626239157372986
 31
0
 12
0.891719333306281
 22
0.644826517967782
 32
0
 13
0.927330181788671
 23
0.646375464684015
 33
0
  0
SOLID
  8
0
 62
8
 10
0.88707444002597
 20
0.658767038413879
 30
0
 11
0.891719333306281
 21
0.644826517967782
 31
0
 12
0.88707444002597
 22
0.658767038413879
 32
0
 13
0.927330181788671
 23
0.646375464684015
 33
0
  0
SOLID
  8
0
 62
8
 10
0.88707444002597
 20
0.658767038413879
 30
0
 11
0.927330181788671
 21
0.646375464684015
 31
0
 12
0.88707444002597
 22
0.658767038413879
 32
0
 13
0.908750608667424
 23
0.683550185873606
 33
0
  0
SOLID
  8
0
 62
8
 10
0.87933295122545
 20
0.675805452292441
 30
0
 11
0.88707444002597
 21
0.658767038413879
 31
0
 12
0.87933295122545
 22
0.675805452292441
 32
0
 13
0.908750608667424
 23
0.683550185873606
 33
0
  0
SOLID
  8
0
 62
8
 10
0.87933295122545
 20
0.675805452292441
 30
0
 11
0.908750608667424
 21
0.683550185873606
 31
0
 12
0.87933295122545
 22
0.675805452292441
 32
0
 13
0.896364226586593
 23
0.705235439900867
 33
0
  0
SOLID
  8
0
 62
8
 10
0.870043164664827
 20
0.702137546468402
 30
0
 11
0.87933295122545
 21
0.675805452292441
 31
0
 12
0.870043164664827
 22
0.702137546468402
 32
0
 13
0.896364226586593
 23
0.705235439900867
 33
0
  0
SOLID
  8
0
 62
8
 10
0.857656782583996
 20
0.717627013630731
 30
0
 11
0.870043164664827
 21
0.702137546468402
 31
0
 12
0.857656782583996
 22
0.717627013630731
 32
0
 13
0.896364226586593
 23
0.705235439900867
 33
0
  0
SOLID
  8
0
 62
8
 10
0.857656782583996
 20
0.717627013630731
 30
0
 11
0.896364226586593
 21
0.705235439900867
 31
0
 12
0.857656782583996
 22
0.717627013630731
 32
0
 13
0.893267631066385
 23
0.736214374225527
 33
0
  0
SOLID
  8
0
 62
8
 10
0.701278708813504
 20
0.533302354399009
 30
0
 11
0.701278708813504
 21
0.51316604708798
 31
0
 12
0.701278708813504
 22
0.533302354399009
 32
0
 13
0.736889557295893
 23
0.510068153655514
 33
0
  0
SOLID
  8
0
 62
8
 10
0.701278708813504
 20
0.533302354399009
 30
0
 11
0.736889557295893
 21
0.510068153655514
 31
0
 12
0.701278708813504
 22
0.533302354399009
 32
0
 13
0.739986152816101
 23
0.531753407682776
 33
0
  0
SOLID
  8
0
 62
8
 10
0.70747189985392
 20
0.559634448574969
 30
0
 11
0.701278708813504
 21
0.533302354399009
 31
0
 12
0.70747189985392
 22
0.559634448574969
 32
0
 13
0.739986152816101
 23
0.531753407682776
 33
0
  0
SOLID
  8
0
 62
8
 10
0.70747189985392
 20
0.559634448574969
 30
0
 11
0.739986152816101
 21
0.531753407682776
 31
0
 12
0.70747189985392
 22
0.559634448574969
 32
0
 13
0.739986152816101
 23
0.562732342007435
 33
0
  0
SOLID
  8
0
 62
8
 10
0.713665090894335
 20
0.587515489467162
 30
0
 11
0.70747189985392
 21
0.559634448574969
 31
0
 12
0.713665090894335
 22
0.587515489467162
 32
0
 13
0.739986152816101
 23
0.562732342007435
 33
0
  0
SOLID
  8
0
 62
8
 10
0.713665090894335
 20
0.587515489467162
 30
0
 11
0.739986152816101
 21
0.562732342007435
 31
0
 12
0.713665090894335
 22
0.587515489467162
 32
0
 13
0.744631046096413
 23
0.592162329615861
 33
0
  0
SOLID
  8
0
 62
8
 10
0.716761686414543
 20
0.613847583643123
 30
0
 11
0.713665090894335
 21
0.587515489467162
 31
0
 12
0.716761686414543
 22
0.613847583643123
 32
0
 13
0.744631046096413
 23
0.592162329615861
 33
0
  0
SOLID
  8
0
 62
8
 10
0.716761686414543
 20
0.613847583643123
 30
0
 11
0.744631046096413
 21
0.592162329615861
 31
0
 12
0.716761686414543
 22
0.613847583643123
 32
0
 13
0.753920832657036
 23
0.615396530359356
 33
0
  0
SOLID
  8
0
 62
8
 10
0.732244664015582
 20
0.635532837670384
 30
0
 11
0.716761686414543
 21
0.613847583643123
 31
0
 12
0.732244664015582
 22
0.635532837670384
 32
0
 13
0.753920832657036
 23
0.615396530359356
 33
0
  0
SOLID
  8
0
 62
8
 10
0.732244664015582
 20
0.635532837670384
 30
0
 11
0.753920832657036
 21
0.615396530359356
 31
0
 12
0.732244664015582
 22
0.635532837670384
 32
0
 13
0.761662321457556
 23
0.624690210656753
 33
0
  0
SOLID
  8
0
 62
8
 10
0.753920832657036
 20
0.649473358116481
 30
0
 11
0.732244664015582
 21
0.635532837670384
 31
0
 12
0.753920832657036
 22
0.649473358116481
 32
0
 13
0.761662321457556
 23
0.624690210656753
 33
0
  0
SOLID
  8
0
 62
8
 10
0.753920832657036
 20
0.649473358116481
 30
0
 11
0.761662321457556
 21
0.624690210656753
 31
0
 12
0.753920832657036
 22
0.649473358116481
 32
0
 13
0.781790192338906
 23
0.637081784386617
 33
0
  0
SOLID
  8
0
 62
8
 10
0.769403810258075
 20
0.661864931846345
 30
0
 11
0.753920832657036
 21
0.649473358116481
 31
0
 12
0.769403810258075
 22
0.661864931846345
 32
0
 13
0.781790192338906
 23
0.637081784386617
 33
0
  0
SOLID
  8
0
 62
8
 10
0.769403810258075
 20
0.661864931846345
 30
0
 11
0.781790192338906
 21
0.637081784386617
 31
0
 12
0.769403810258075
 22
0.661864931846345
 32
0
 13
0.801918063220256
 23
0.668060718711276
 33
0
  0
SOLID
  8
0
 62
8
 10
0.781790192338906
 20
0.686648079306072
 30
0
 11
0.769403810258075
 21
0.661864931846345
 31
0
 12
0.781790192338906
 22
0.686648079306072
 32
0
 13
0.801918063220256
 23
0.668060718711276
 33
0
  0
SOLID
  8
0
 62
8
 10
0.781790192338906
 20
0.686648079306072
 30
0
 11
0.801918063220256
 21
0.668060718711276
 31
0
 12
0.781790192338906
 22
0.686648079306072
 32
0
 13
0.815852743061191
 23
0.691294919454771
 33
0
  0
SOLID
  8
0
 62
8
 10
0.787983383379322
 20
0.711431226765799
 30
0
 11
0.781790192338906
 21
0.686648079306072
 31
0
 12
0.787983383379322
 22
0.711431226765799
 32
0
 13
0.815852743061191
 23
0.691294919454771
 33
0
  0
SOLID
  8
0
 62
8
 10
0.806562956500568
 20
0.726920693928129
 30
0
 11
0.787983383379322
 21
0.711431226765799
 31
0
 12
0.806562956500568
 22
0.726920693928129
 32
0
 13
0.815852743061191
 23
0.691294919454771
 33
0
  0
SOLID
  8
0
 62
8
 10
0.806562956500568
 20
0.726920693928129
 30
0
 11
0.815852743061191
 21
0.691294919454771
 31
0
 12
0.806562956500568
 22
0.726920693928129
 32
0
 13
0.828239125142022
 23
0.708333333333333
 33
0
  0
SOLID
  8
0
 62
8
 10
0.822045934101607
 20
0.73776332094176
 30
0
 11
0.806562956500568
 21
0.726920693928129
 31
0
 12
0.822045934101607
 22
0.73776332094176
 32
0
 13
0.828239125142022
 23
0.708333333333333
 33
0
  0
SOLID
  8
0
 62
8
 10
0.822045934101607
 20
0.73776332094176
 30
0
 11
0.828239125142022
 21
0.708333333333333
 31
0
 12
0.822045934101607
 22
0.73776332094176
 32
0
 13
0.854560187063788
 23
0.717627013630731
 33
0
  0
SOLID
  8
0
 62
8
 10
0.822045934101607
 20
0.73776332094176
 30
0
 11
0.854560187063788
 21
0.717627013630731
 31
0
 12
0.822045934101607
 22
0.73776332094176
 32
0
 13
0.857656782583996
 23
0.717627013630731
 33
0
  0
SOLID
  8
0
 62
8
 10
0.832884018422334
 20
0.753252788104089
 30
0
 11
0.822045934101607
 21
0.73776332094176
 31
0
 12
0.832884018422334
 22
0.753252788104089
 32
0
 13
0.857656782583996
 23
0.717627013630731
 33
0
  0
SOLID
  8
0
 62
8
 10
0.763210619217659
 20
0.897304832713755
 30
0
 11
0.78333849009901
 21
0.869423791821561
 31
0
 12
0.763210619217659
 22
0.897304832713755
 32
0
 13
0.791079978899529
 23
0.86322800495663
 33
0
  0
SOLID
  8
0
 62
8
 10
0.893267631066385
 20
0.736214374225527
 30
0
 11
0.890171035546177
 21
0.759448574969021
 31
0
 12
0.893267631066385
 22
0.736214374225527
 32
0
 13
0.880881248985554
 23
0.77958488228005
 33
0
  0
SOLID
  8
0
 62
8
 10
0.784886787859114
 20
0.960811648079306
 30
0
 11
0.791079978899529
 21
0.988692688971499
 31
0
 12
0.784886787859114
 22
0.960811648079306
 32
0
 13
0.76
 23
1
 33
0
  0
SOLID
  8
0
 62
8
 10
0.784886787859114
 20
0.960811648079306
 30
0
 11
0.76
 21
1
 31
0
 12
0.784886787859114
 22
0.960811648079306
 32
0
 13
0.750824237136828
 23
0.965458488228005
 33
0
  0
SOLID
  8
0
 62
8
 10
0.784886787859114
 20
0.942224287484511
 30
0
 11
0.784886787859114
 21
0.960811648079306
 31
0
 12
0.784886787859114
 22
0.942224287484511
 32
0
 13
0.750824237136828
 23
0.965458488228005
 33
0
  0
SOLID
  8
0
 62
8
 10
0.784886787859114
 20
0.942224287484511
 30
0
 11
0.750824237136828
 21
0.965458488228005
 31
0
 12
0.784886787859114
 22
0.942224287484511
 32
0
 13
0.752372534896932
 23
0.93138166047088
 33
0
  0
SOLID
  8
0
 62
8
 10
0.791079978899529
 20
0.928283767038414
 30
0
 11
0.784886787859114
 21
0.942224287484511
 31
0
 12
0.791079978899529
 22
0.928283767038414
 32
0
 13
0.752372534896932
 23
0.93138166047088
 33
0
  0
SOLID
  8
0
 62
8
 10
0.791079978899529
 20
0.928283767038414
 30
0
 11
0.752372534896932
 21
0.93138166047088
 31
0
 12
0.791079978899529
 22
0.928283767038414
 32
0
 13
0.760114023697452
 23
0.908147459727385
 33
0
  0
SOLID
  8
0
 62
8
 10
0.797273169939945
 20
0.914343246592317
 30
0
 11
0.791079978899529
 21
0.928283767038414
 31
0
 12
0.797273169939945
 22
0.914343246592317
 32
0
 13
0.760114023697452
 23
0.908147459727385
 33
0
  0
SOLID
  8
0
 62
8
 10
0.797273169939945
 20
0.914343246592317
 30
0
 11
0.760114023697452
 21
0.908147459727385
 31
0
 12
0.797273169939945
 22
0.914343246592317
 32
0
 13
0.763210619217659
 23
0.897304832713755
 33
0
  0
SOLID
  8
0
 62
8
 10
0.791079978899529
 20
0.86322800495663
 30
0
 11
0.798821467700049
 21
0.836895910780669
 31
0
 12
0.791079978899529
 22
0.86322800495663
 32
0
 13
0.81120784978088
 23
0.819857496902107
 33
0
  0
SOLID
  8
0
 62
8
 10
0.797273169939945
 20
0.914343246592317
 30
0
 11
0.763210619217659
 21
0.897304832713755
 31
0
 12
0.797273169939945
 22
0.914343246592317
 32
0
 13
0.791079978899529
 23
0.86322800495663
 33
0
  0
SOLID
  8
0
 62
8
 10
0.815852743061191
 20
0.886462205700124
 30
0
 11
0.797273169939945
 21
0.914343246592317
 31
0
 12
0.815852743061191
 22
0.886462205700124
 32
0
 13
0.791079978899529
 23
0.86322800495663
 33
0
  0
SOLID
  8
0
 62
8
 10
0.832884018422334
 20
0.867874845105328
 30
0
 11
0.815852743061191
 21
0.886462205700124
 31
0
 12
0.832884018422334
 22
0.867874845105328
 32
0
 13
0.791079978899529
 23
0.86322800495663
 33
0
  0
SOLID
  8
0
 62
8
 10
0.832884018422334
 20
0.867874845105328
 30
0
 11
0.791079978899529
 21
0.86322800495663
 31
0
 12
0.832884018422334
 22
0.867874845105328
 32
0
 13
0.81120784978088
 23
0.819857496902107
 33
0
  0
SOLID
  8
0
 62
8
 10
0.853011889303684
 20
0.836895910780669
 30
0
 11
0.832884018422334
 21
0.867874845105328
 31
0
 12
0.853011889303684
 22
0.836895910780669
 32
0
 13
0.81120784978088
 23
0.819857496902107
 33
0
  0
SOLID
  8
0
 62
8
 10
0.853011889303684
 20
0.836895910780669
 30
0
 11
0.81120784978088
 21
0.819857496902107
 31
0
 12
0.853011889303684
 22
0.836895910780669
 32
0
 13
0.822045934101607
 23
0.798172242874845
 33
0
  0
SOLID
  8
0
 62
8
 10
0.865398271384515
 20
0.80591697645601
 30
0
 11
0.853011889303684
 21
0.836895910780669
 31
0
 12
0.865398271384515
 22
0.80591697645601
 32
0
 13
0.822045934101607
 23
0.798172242874845
 33
0
  0
SOLID
  8
0
 62
8
 10
0.865398271384515
 20
0.80591697645601
 30
0
 11
0.822045934101607
 21
0.798172242874845
 31
0
 12
0.865398271384515
 22
0.80591697645601
 32
0
 13
0.83133572066223
 23
0.778035935563817
 33
0
  0
SOLID
  8
0
 62
8
 10
0.880881248985554
 20
0.77958488228005
 30
0
 11
0.865398271384515
 21
0.80591697645601
 31
0
 12
0.880881248985554
 22
0.77958488228005
 32
0
 13
0.83133572066223
 23
0.778035935563817
 33
0
  0
SOLID
  8
0
 62
8
 10
0.880881248985554
 20
0.77958488228005
 30
0
 11
0.83133572066223
 21
0.778035935563817
 31
0
 12
0.880881248985554
 22
0.77958488228005
 32
0
 13
0.832884018422334
 23
0.753252788104089
 33
0
  0
SOLID
  8
0
 62
8
 10
0.832884018422334
 20
0.753252788104089
 30
0
 11
0.857656782583996
 21
0.717627013630731
 31
0
 12
0.832884018422334
 22
0.753252788104089
 32
0
 13
0.893267631066385
 23
0.736214374225527
 33
0
  0
SOLID
  8
0
 62
8
 10
0.832884018422334
 20
0.753252788104089
 30
0
 11
0.893267631066385
 21
0.736214374225527
 31
0
 12
0.832884018422334
 22
0.753252788104089
 32
0
 13
0.880881248985554
 23
0.77958488228005
 33
0
  0
SOLID
  8
0
 62
8
 10
0.953899039004853
 20
0.981210660809657
 30
0
 11
0.950800752049189
 21
0.98431024638653
 31
0
 12
0.953899039004853
 22
0.981210660809657
 32
0
 13
0.939956747704363
 23
0.992059210328715
 33
0
  0
SOLID
  8
0
 62
8
 10
0.978685334650169
 20
0.909920192541559
 30
0
 11
0.967841330305343
 21
0.916119363695307
 31
0
 12
0.978685334650169
 22
0.909920192541559
 32
0
 13
0.960095612916182
 23
0.908370399753122
 33
0
  0
SOLID
  8
0
 62
8
 10
0.884187582502401
 20
0.971911904079035
 30
0
 11
0.891933299891563
 21
0.970362111290598
 31
0
 12
0.884187582502401
 22
0.971911904079035
 32
0
 13
0.905875591192053
 23
0.970362111290598
 33
0
  0
SOLID
  8
0
 62
8
 10
0.984881908561498
 20
0.903721021387812
 30
0
 11
0.978685334650169
 21
0.909920192541559
 31
0
 12
0.984881908561498
 22
0.903721021387812
 32
0
 13
0.960095612916182
 23
0.908370399753122
 33
0
  0
SOLID
  8
0
 62
8
 10
0.930661886837369
 20
0.895972057445627
 30
0
 11
0.915170452059046
 21
0.891322679080317
 31
0
 12
0.930661886837369
 22
0.895972057445627
 32
0
 13
0.905875591192053
 23
0.885123507926569
 33
0
  0
SOLID
  8
0
 62
8
 10
0.943055034660027
 20
0.962613147348414
 30
0
 11
0.953899039004853
 21
0.981210660809657
 31
0
 12
0.943055034660027
 22
0.962613147348414
 32
0
 13
0.939956747704363
 23
0.992059210328715
 33
0
  0
SOLID
  8
0
 62
8
 10
0.966292186827511
 20
0.860326823311579
 30
0
 11
0.974037904216672
 21
0.866525994465326
 31
0
 12
0.966292186827511
 22
0.860326823311579
 32
0
 13
0.983332765083666
 23
0.885123507926569
 33
0
  0
SOLID
  8
0
 62
8
 10
0.837713278167433
 20
0.926967913214365
 30
0
 11
0.840811565123098
 21
0.916119363695307
 31
0
 12
0.837713278167433
 22
0.926967913214365
 32
0
 13
0.847008139034427
 23
0.897521850234064
 33
0
  0
SOLID
  8
0
 62
8
 10
0.887285869458066
 20
0.84947827379252
 30
0
 11
0.908973878147717
 21
0.846378688215647
 31
0
 12
0.887285869458066
 22
0.84947827379252
 32
0
 13
0.918268739014711
 23
0.858777030523142
 33
0
  0
SOLID
  8
0
 62
8
 10
0.922916169448208
 20
0.964162940136851
 30
0
 11
0.943055034660027
 21
0.962613147348414
 31
0
 12
0.922916169448208
 22
0.964162940136851
 32
0
 13
0.939956747704363
 23
0.992059210328715
 33
0
  0
SOLID
  8
0
 62
8
 10
0.983332765083666
 20
0.885123507926569
 30
0
 11
0.984881908561498
 21
0.903721021387812
 31
0
 12
0.983332765083666
 22
0.885123507926569
 32
0
 13
0.960095612916182
 23
0.908370399753122
 33
0
  0
SOLID
  8
0
 62
8
 10
0.922916169448208
 20
0.964162940136851
 30
0
 11
0.939956747704363
 21
0.992059210328715
 31
0
 12
0.922916169448208
 22
0.964162940136851
 32
0
 13
0.908973878147717
 23
0.995158795905589
 33
0
  0
SOLID
  8
0
 62
8
 10
0.905875591192053
 20
0.970362111290598
 30
0
 11
0.922916169448208
 21
0.964162940136851
 31
0
 12
0.905875591192053
 22
0.970362111290598
 32
0
 13
0.908973878147717
 23
0.995158795905589
 33
0
  0
SOLID
  8
0
 62
8
 10
0.884187582502401
 20
0.971911904079035
 30
0
 11
0.905875591192053
 21
0.970362111290598
 31
0
 12
0.884187582502401
 22
0.971911904079035
 32
0
 13
0.908973878147717
 23
0.995158795905589
 33
0
  0
SOLID
  8
0
 62
8
 10
0.884187582502401
 20
0.971911904079035
 30
0
 11
0.908973878147717
 21
0.995158795905589
 31
0
 12
0.884187582502401
 22
0.971911904079035
 32
0
 13
0.870245291201911
 23
0.993609003117152
 33
0
  0
SOLID
  8
0
 62
8
 10
0.884187582502401
 20
0.971911904079035
 30
0
 11
0.870245291201911
 21
0.993609003117152
 31
0
 12
0.884187582502401
 22
0.971911904079035
 32
0
 13
0.854753856423588
 23
0.982760453598094
 33
0
  0
SOLID
  8
0
 62
8
 10
0.865597860768414
 20
0.954864183406229
 30
0
 11
0.884187582502401
 21
0.971911904079035
 31
0
 12
0.865597860768414
 22
0.954864183406229
 32
0
 13
0.854753856423588
 23
0.982760453598094
 33
0
  0
SOLID
  8
0
 62
8
 10
0.983332765083666
 20
0.885123507926569
 30
0
 11
0.960095612916182
 21
0.908370399753122
 31
0
 12
0.983332765083666
 22
0.885123507926569
 32
0
 13
0.950800752049189
 23
0.895972057445627
 33
0
  0
SOLID
  8
0
 62
8
 10
0.865597860768414
 20
0.954864183406229
 30
0
 11
0.854753856423588
 21
0.982760453598094
 31
0
 12
0.865597860768414
 22
0.954864183406229
 32
0
 13
0.833065847733937
 23
0.971911904079035
 33
0
  0
SOLID
  8
0
 62
8
 10
0.983332765083666
 20
0.885123507926569
 30
0
 11
0.950800752049189
 21
0.895972057445627
 31
0
 12
0.983332765083666
 22
0.885123507926569
 32
0
 13
0.946153321615692
 23
0.895972057445627
 33
0
  0
SOLID
  8
0
 62
8
 10
0.865597860768414
 20
0.954864183406229
 30
0
 11
0.833065847733937
 21
0.971911904079035
 31
0
 12
0.865597860768414
 22
0.954864183406229
 32
0
 13
0.826869273822607
 23
0.953314390617792
 33
0
  0
SOLID
  8
0
 62
8
 10
0.877991008591072
 20
0.917669156483744
 30
0
 11
0.877991008591072
 21
0.933167084368113
 31
0
 12
0.877991008591072
 22
0.917669156483744
 32
0
 13
0.865597860768414
 23
0.954864183406229
 33
0
  0
SOLID
  8
0
 62
8
 10
0.865597860768414
 20
0.954864183406229
 30
0
 11
0.826869273822607
 21
0.953314390617792
 31
0
 12
0.865597860768414
 22
0.954864183406229
 32
0
 13
0.837713278167433
 23
0.926967913214365
 33
0
  0
SOLID
  8
0
 62
8
 10
0.966292186827511
 20
0.860326823311579
 30
0
 11
0.983332765083666
 21
0.885123507926569
 31
0
 12
0.966292186827511
 22
0.860326823311579
 32
0
 13
0.946153321615692
 23
0.895972057445627
 33
0
  0
SOLID
  8
0
 62
8
 10
0.935309317270866
 20
0.864976201676889
 30
0
 11
0.966292186827511
 21
0.860326823311579
 31
0
 12
0.935309317270866
 22
0.864976201676889
 32
0
 13
0.946153321615692
 23
0.895972057445627
 33
0
  0
SOLID
  8
0
 62
8
 10
0.935309317270866
 20
0.864976201676889
 30
0
 11
0.946153321615692
 21
0.895972057445627
 31
0
 12
0.935309317270866
 22
0.864976201676889
 32
0
 13
0.930661886837369
 23
0.895972057445627
 33
0
  0
SOLID
  8
0
 62
8
 10
0.935309317270866
 20
0.864976201676889
 30
0
 11
0.930661886837369
 21
0.895972057445627
 31
0
 12
0.935309317270866
 22
0.864976201676889
 32
0
 13
0.905875591192053
 23
0.885123507926569
 33
0
  0
SOLID
  8
0
 62
8
 10
0.918268739014711
 20
0.858777030523142
 30
0
 11
0.935309317270866
 21
0.864976201676889
 31
0
 12
0.918268739014711
 22
0.858777030523142
 32
0
 13
0.905875591192053
 23
0.885123507926569
 33
0
  0
SOLID
  8
0
 62
8
 10
0.918268739014711
 20
0.858777030523142
 30
0
 11
0.905875591192053
 21
0.885123507926569
 31
0
 12
0.918268739014711
 22
0.858777030523142
 32
0
 13
0.895031586847227
 23
0.883573715138132
 33
0
  0
SOLID
  8
0
 62
8
 10
0.887285869458066
 20
0.84947827379252
 30
0
 11
0.918268739014711
 21
0.858777030523142
 31
0
 12
0.887285869458066
 22
0.84947827379252
 32
0
 13
0.895031586847227
 23
0.883573715138132
 33
0
  0
SOLID
  8
0
 62
8
 10
0.870245291201911
 20
0.860326823311579
 30
0
 11
0.887285869458066
 21
0.84947827379252
 31
0
 12
0.870245291201911
 22
0.860326823311579
 32
0
 13
0.895031586847227
 23
0.883573715138132
 33
0
  0
SOLID
  8
0
 62
8
 10
0.85630299990142
 20
0.877374543984385
 30
0
 11
0.870245291201911
 21
0.860326823311579
 31
0
 12
0.85630299990142
 22
0.877374543984385
 32
0
 13
0.895031586847227
 23
0.883573715138132
 33
0
  0
SOLID
  8
0
 62
8
 10
0.85630299990142
 20
0.877374543984385
 30
0
 11
0.895031586847227
 21
0.883573715138132
 31
0
 12
0.85630299990142
 22
0.877374543984385
 32
0
 13
0.881089295546737
 23
0.902171228599375
 33
0
  0
SOLID
  8
0
 62
8
 10
0.847008139034427
 20
0.897521850234064
 30
0
 11
0.85630299990142
 21
0.877374543984385
 31
0
 12
0.847008139034427
 22
0.897521850234064
 32
0
 13
0.881089295546737
 23
0.902171228599375
 33
0
  0
SOLID
  8
0
 62
8
 10
0.847008139034427
 20
0.897521850234064
 30
0
 11
0.881089295546737
 21
0.902171228599375
 31
0
 12
0.847008139034427
 22
0.897521850234064
 32
0
 13
0.877991008591072
 23
0.917669156483744
 33
0
  0
SOLID
  8
0
 62
8
 10
0.877991008591072
 20
0.917669156483744
 30
0
 11
0.865597860768414
 21
0.954864183406229
 31
0
 12
0.877991008591072
 22
0.917669156483744
 32
0
 13
0.837713278167433
 23
0.926967913214365
 33
0
  0
SOLID
  8
0
 62
8
 10
0.847008139034427
 20
0.897521850234064
 30
0
 11
0.877991008591072
 21
0.917669156483744
 31
0
 12
0.847008139034427
 22
0.897521850234064
 32
0
 13
0.837713278167433
 23
0.926967913214365
 33
0
  0
SOLID
  8
0
 62
8
 10
0.916719595536879
 20
0.947115219464045
 30
0
 11
0.902777304236388
 21
0.947115219464045
 31
0
 12
0.916719595536879
 22
0.947115219464045
 32
0
 13
0.898129873802892
 23
0.944015633887171
 33
0
  0
SOLID
  8
0
 62
8
 10
0.913621308581214
 20
0.917669156483744
 30
0
 11
0.92446531292604
 21
0.917669156483744
 31
0
 12
0.913621308581214
 22
0.917669156483744
 32
0
 13
0.933760173793034
 23
0.920768742060618
 33
0
  0
SOLID
  8
0
 62
8
 10
0.913621308581214
 20
0.917669156483744
 30
0
 11
0.933760173793034
 21
0.920768742060618
 31
0
 12
0.913621308581214
 22
0.917669156483744
 32
0
 13
0.933760173793034
 23
0.93936625552186
 33
0
  0
SOLID
  8
0
 62
8
 10
0.913621308581214
 20
0.917669156483744
 30
0
 11
0.933760173793034
 21
0.93936625552186
 31
0
 12
0.913621308581214
 22
0.917669156483744
 32
0
 13
0.916719595536879
 23
0.947115219464045
 33
0
  0
SOLID
  8
0
 62
8
 10
0.913621308581214
 20
0.917669156483744
 30
0
 11
0.916719595536879
 21
0.947115219464045
 31
0
 12
0.913621308581214
 22
0.917669156483744
 32
0
 13
0.898129873802892
 23
0.944015633887171
 33
0
  0
SOLID
  8
0
 62
8
 10
0.898129873802892
 20
0.922318534849054
 30
0
 11
0.913621308581214
 21
0.917669156483744
 31
0
 12
0.898129873802892
 22
0.922318534849054
 32
0
 13
0.898129873802892
 23
0.944015633887171
 33
0
  0
SOLID
  8
0
 62
8
 10
0.960898
 20
0.9548642
 30
0
 11
0.9562506
 21
0.9393662
 31
0
 12
0.960898
 22
0.9548642
 32
0
 13
0.9639964
 23
0.9300674
 33
0
  0
SOLID
  8
0
 62
8
 10
0.9872336
 20
0.9626132
 30
0
 11
0.970193
 21
0.964163
 31
0
 12
0.9872336
 22
0.9626132
 32
0
 13
0.960898
 23
0.9548642
 33
0
  0
SOLID
  8
0
 62
8
 10
0.960898
 20
0.9548642
 30
0
 11
0.9639964
 21
0.9300674
 31
0
 12
0.960898
 22
0.9548642
 32
0
 13
0.982586
 23
0.9254182
 33
0
  0
SOLID
  8
0
 62
8
 10
0.9872336
 20
0.9626132
 30
0
 11
0.960898
 21
0.9548642
 31
0
 12
0.9872336
 22
0.9626132
 32
0
 13
0.982586
 23
0.9254182
 33
0
  0
SOLID
  8
0
 62
8
 10
0.982586
 20
0.9254182
 30
0
 11
1
 21
0.92
 31
0
 12
0.982586
 22
0.9254182
 32
0
 13
1
 23
0.96
 33
0
  0
SOLID
  8
0
 62
8
 10
0.982586
 20
0.9254182
 30
0
 11
1
 21
0.96
 31
0
 12
0.982586
 22
0.9254182
 32
0
 13
0.9872336
 23
0.9626132
 33
0
  0
SOLID
  8
0
 62
8
 10
0.777296682531975
 20
0.494575725240471
 30
0
 11
0.78039496948764
 21
0.493025932452034
 31
0
 12
0.777296682531975
 22
0.494575725240471
 32
0
 13
0.791238973832465
 23
0.499225103605781
 33
0
  0
SOLID
  8
0
 62
8
 10
0.792788117310298
 20
0.593762463700432
 30
0
 11
0.786591543398969
 21
0.596862049277306
 31
0
 12
0.792788117310298
 22
0.593762463700432
 32
0
 13
0.774198395576311
 23
0.598411842065743
 33
0
  0
SOLID
  8
0
 62
8
 10
0.791238973832465
 20
0.499225103605781
 30
0
 11
0.795886404265962
 21
0.51007365312484
 31
0
 12
0.791238973832465
 22
0.499225103605781
 32
0
 13
0.798984691221627
 23
0.519372409855461
 33
0
  0
SOLID
  8
0
 62
8
 10
0.766452678187149
 20
0.505424274759529
 30
0
 11
0.777296682531975
 21
0.494575725240471
 31
0
 12
0.766452678187149
 22
0.505424274759529
 32
0
 13
0.791238973832465
 23
0.499225103605781
 33
0
  0
SOLID
  8
0
 62
8
 10
0.774198395576311
 20
0.598411842065743
 30
0
 11
0.766452678187149
 21
0.590662878123558
 31
0
 12
0.774198395576311
 22
0.598411842065743
 32
0
 13
0.763354391231485
 23
0.575164950239189
 33
0
  0
SOLID
  8
0
 62
8
 10
0.763354391231485
 20
0.575164950239189
 30
0
 11
0.766452678187149
 21
0.55966702235482
 31
0
 12
0.763354391231485
 22
0.575164950239189
 32
0
 13
0.771100108620646
 23
0.547268680047325
 33
0
  0
SOLID
  8
0
 62
8
 10
0.772649252098478
 20
0.527121373797646
 30
0
 11
0.766452678187149
 21
0.505424274759529
 31
0
 12
0.772649252098478
 22
0.527121373797646
 32
0
 13
0.791238973832465
 23
0.499225103605781
 33
0
  0
SOLID
  8
0
 62
8
 10
0.772649252098478
 20
0.527121373797646
 30
0
 11
0.791238973832465
 21
0.499225103605781
 31
0
 12
0.772649252098478
 22
0.527121373797646
 32
0
 13
0.798984691221627
 23
0.519372409855461
 33
0
  0
SOLID
  8
0
 62
8
 10
0.772649252098478
 20
0.527121373797646
 30
0
 11
0.798984691221627
 21
0.519372409855461
 31
0
 12
0.772649252098478
 22
0.527121373797646
 32
0
 13
0.803632121655124
 23
0.536420130528267
 33
0
  0
SOLID
  8
0
 62
8
 10
0.772649252098478
 20
0.527121373797646
 30
0
 11
0.803632121655124
 21
0.536420130528267
 31
0
 12
0.772649252098478
 22
0.527121373797646
 32
0
 13
0.805181265132956
 23
0.537969923316704
 33
0
  0
SOLID
  8
0
 62
8
 10
0.792788117310298
 20
0.593762463700432
 30
0
 11
0.774198395576311
 21
0.598411842065743
 31
0
 12
0.792788117310298
 22
0.593762463700432
 32
0
 13
0.763354391231485
 23
0.575164950239189
 33
0
  0
SOLID
  8
0
 62
8
 10
0.797435547743794
 20
0.572065364662316
 30
0
 11
0.792788117310298
 21
0.593762463700432
 31
0
 12
0.797435547743794
 22
0.572065364662316
 32
0
 13
0.763354391231485
 23
0.575164950239189
 33
0
  0
SOLID
  8
0
 62
8
 10
0.771100108620646
 20
0.547268680047325
 30
0
 11
0.772649252098478
 21
0.527121373797646
 31
0
 12
0.771100108620646
 22
0.547268680047325
 32
0
 13
0.805181265132956
 23
0.537969923316704
 33
0
  0
SOLID
  8
0
 62
8
 10
0.771100108620646
 20
0.547268680047325
 30
0
 11
0.805181265132956
 21
0.537969923316704
 31
0
 12
0.771100108620646
 22
0.547268680047325
 32
0
 13
0.797435547743794
 23
0.572065364662316
 33
0
  0
SOLID
  8
0
 62
8
 10
0.771100108620646
 20
0.547268680047325
 30
0
 11
0.797435547743794
 21
0.572065364662316
 31
0
 12
0.771100108620646
 22
0.547268680047325
 32
0
 13
0.763354391231485
 23
0.575164950239189
 33
0
  0
SOLID
  8
0
 62
8
 10
0.812756147540983
 20
0.475991325898389
 30
0
 11
0.812756147540983
 21
0.46050185873606
 31
0
 12
0.812756147540983
 22
0.475991325898389
 32
0
 13
0.826690827381918
 23
0.458952912019827
 33
0
  0
SOLID
  8
0
 62
8
 10
0.927330181788671
 20
0.395446096654275
 30
0
 11
0.942813159389709
 21
0.398543990086741
 31
0
 12
0.927330181788671
 22
0.395446096654275
 32
0
 13
0.950554648190229
 23
0.401641883519207
 33
0
  0
SOLID
  8
0
 62
8
 10
0.826690827381918
 20
0.483736059479554
 30
0
 11
0.812756147540983
 21
0.475991325898389
 31
0
 12
0.826690827381918
 22
0.483736059479554
 32
0
 13
0.826690827381918
 23
0.458952912019827
 33
0
  0
SOLID
  8
0
 62
8
 10
0.874688057945139
 20
0.347428748451053
 30
0
 11
0.88707444002597
 21
0.353624535315985
 31
0
 12
0.874688057945139
 22
0.347428748451053
 32
0
 13
0.896364226586593
 23
0.359820322180917
 33
0
  0
SOLID
  8
0
 62
8
 10
0.880881248985554
 20
0.407837670384139
 30
0
 11
0.873139760185035
 21
0.398543990086741
 31
0
 12
0.880881248985554
 22
0.407837670384139
 32
0
 13
0.873139760185035
 23
0.383054522924411
 33
0
  0
SOLID
  8
0
 62
8
 10
0.767855512497971
 20
0.296313506815366
 30
0
 11
0.761662321457555
 21
0.280824039653036
 31
0
 12
0.767855512497971
 22
0.296313506815366
 32
0
 13
0.778693596818698
 23
0.269981412639405
 33
0
  0
SOLID
  8
0
 62
8
 10
0.828239125142022
 20
0.290117719950434
 30
0
 11
0.843722102743061
 21
0.299411400247831
 31
0
 12
0.828239125142022
 22
0.290117719950434
 32
0
 13
0.853011889303684
 23
0.311802973977695
 33
0
  0
SOLID
  8
0
 62
8
 10
0.853011889303684
 20
0.479089219330855
 30
0
 11
0.826690827381918
 21
0.483736059479554
 31
0
 12
0.853011889303684
 22
0.479089219330855
 32
0
 13
0.826690827381918
 23
0.458952912019827
 33
0
  0
SOLID
  8
0
 62
8
 10
0.853011889303684
 20
0.479089219330855
 30
0
 11
0.826690827381918
 21
0.458952912019827
 31
0
 12
0.853011889303684
 22
0.479089219330855
 32
0
 13
0.846818698263269
 23
0.448110285006196
 33
0
  0
SOLID
  8
0
 62
8
 10
0.950554648190229
 20
0.401641883519207
 30
0
 11
0.969134221311475
 21
0.410935563816605
 31
0
 12
0.950554648190229
 22
0.401641883519207
 32
0
 13
0.978424007872098
 23
0.423327137546468
 33
0
  0
SOLID
  8
0
 62
8
 10
0.778693596818698
 20
0.269981412639405
 30
0
 11
0.797273169939945
 21
0.274628252788104
 31
0
 12
0.778693596818698
 22
0.269981412639405
 32
0
 13
0.809659552020776
 23
0.287019826517968
 33
0
  0
SOLID
  8
0
 62
8
 10
0.853011889303684
 20
0.479089219330855
 30
0
 11
0.846818698263269
 21
0.448110285006196
 31
0
 12
0.853011889303684
 22
0.479089219330855
 32
0
 13
0.865398271384515
 23
0.44501239157373
 33
0
  0
SOLID
  8
0
 62
8
 10
0.877784653465346
 20
0.469795539033457
 30
0
 11
0.853011889303684
 21
0.479089219330855
 31
0
 12
0.877784653465346
 22
0.469795539033457
 32
0
 13
0.865398271384515
 23
0.44501239157373
 33
0
  0
SOLID
  8
0
 62
8
 10
0.877784653465346
 20
0.469795539033457
 30
0
 11
0.865398271384515
 21
0.44501239157373
 31
0
 12
0.877784653465346
 22
0.469795539033457
 32
0
 13
0.882429546745658
 23
0.438816604708798
 33
0
  0
SOLID
  8
0
 62
8
 10
0.897912524346697
 20
0.457403965303594
 30
0
 11
0.877784653465346
 21
0.469795539033457
 31
0
 12
0.897912524346697
 22
0.457403965303594
 32
0
 13
0.882429546745658
 23
0.438816604708798
 33
0
  0
SOLID
  8
0
 62
8
 10
0.897912524346697
 20
0.457403965303594
 30
0
 11
0.882429546745658
 21
0.438816604708798
 31
0
 12
0.897912524346697
 22
0.457403965303594
 32
0
 13
0.896364226586593
 23
0.4295229244114
 33
0
  0
SOLID
  8
0
 62
8
 10
0.921136990748255
 20
0.448110285006196
 30
0
 11
0.897912524346697
 21
0.457403965303594
 31
0
 12
0.921136990748255
 22
0.448110285006196
 32
0
 13
0.896364226586593
 23
0.4295229244114
 33
0
  0
SOLID
  8
0
 62
8
 10
0.921136990748255
 20
0.448110285006196
 30
0
 11
0.896364226586593
 21
0.4295229244114
 31
0
 12
0.921136990748255
 22
0.448110285006196
 32
0
 13
0.901009119866905
 23
0.421778190830235
 33
0
  0
SOLID
  8
0
 62
8
 10
0.777145299058594
 20
0.308705080545229
 30
0
 11
0.767855512497971
 21
0.296313506815366
 31
0
 12
0.777145299058594
 22
0.308705080545229
 32
0
 13
0.778693596818698
 23
0.269981412639405
 33
0
  0
SOLID
  8
0
 62
8
 10
0.777145299058594
 20
0.308705080545229
 30
0
 11
0.778693596818698
 21
0.269981412639405
 31
0
 12
0.777145299058594
 22
0.308705080545229
 32
0
 13
0.809659552020776
 23
0.287019826517968
 33
0
  0
SOLID
  8
0
 62
8
 10
0.800369765460152
 20
0.322645600991326
 30
0
 11
0.777145299058594
 21
0.308705080545229
 31
0
 12
0.800369765460152
 22
0.322645600991326
 32
0
 13
0.809659552020776
 23
0.287019826517968
 33
0
  0
SOLID
  8
0
 62
8
 10
0.866946569144619
 20
0.378407682775713
 30
0
 11
0.842173804982957
 21
0.364467162329616
 31
0
 12
0.866946569144619
 22
0.378407682775713
 32
0
 13
0.835980613942542
 23
0.348977695167286
 33
0
  0
SOLID
  8
0
 62
8
 10
0.800369765460152
 20
0.322645600991326
 30
0
 11
0.809659552020776
 21
0.287019826517968
 31
0
 12
0.800369765460152
 22
0.322645600991326
 32
0
 13
0.828239125142022
 23
0.290117719950434
 33
0
  0
SOLID
  8
0
 62
8
 10
1
 20
0.44
 30
0
 11
1
 21
0.48
 31
0
 12
1
 22
0.44
 32
0
 13
0.961392732510956
 23
0.458952912019827
 33
0
  0
SOLID
  8
0
 62
8
 10
0.978424007872098
 20
0.423327137546468
 30
0
 11
1
 21
0.44
 31
0
 12
0.978424007872098
 22
0.423327137546468
 32
0
 13
0.961392732510956
 23
0.458952912019827
 33
0
  0
SOLID
  8
0
 62
8
 10
0.823594231861711
 20
0.333488228004957
 30
0
 11
0.800369765460152
 21
0.322645600991326
 31
0
 12
0.823594231861711
 22
0.333488228004957
 32
0
 13
0.828239125142022
 23
0.290117719950434
 33
0
  0
SOLID
  8
0
 62
8
 10
0.823594231861711
 20
0.333488228004957
 30
0
 11
0.828239125142022
 21
0.290117719950434
 31
0
 12
0.823594231861711
 22
0.333488228004957
 32
0
 13
0.853011889303684
 23
0.311802973977695
 33
0
  0
SOLID
  8
0
 62
8
 10
0.835980613942542
 20
0.348977695167286
 30
0
 11
0.823594231861711
 21
0.333488228004957
 31
0
 12
0.835980613942542
 22
0.348977695167286
 32
0
 13
0.853011889303684
 23
0.311802973977695
 33
0
  0
SOLID
  8
0
 62
8
 10
0.835980613942542
 20
0.348977695167286
 30
0
 11
0.853011889303684
 21
0.311802973977695
 31
0
 12
0.835980613942542
 22
0.348977695167286
 32
0
 13
0.865398271384515
 23
0.333488228004957
 33
0
  0
SOLID
  8
0
 62
8
 10
0.835980613942542
 20
0.348977695167286
 30
0
 11
0.865398271384515
 21
0.333488228004957
 31
0
 12
0.835980613942542
 22
0.348977695167286
 32
0
 13
0.874688057945139
 23
0.347428748451053
 33
0
  0
SOLID
  8
0
 62
8
 10
0.866946569144619
 20
0.378407682775713
 30
0
 11
0.835980613942542
 21
0.348977695167286
 31
0
 12
0.866946569144619
 22
0.378407682775713
 32
0
 13
0.874688057945139
 23
0.347428748451053
 33
0
  0
SOLID
  8
0
 62
8
 10
0.866946569144619
 20
0.378407682775713
 30
0
 11
0.874688057945139
 21
0.347428748451053
 31
0
 12
0.866946569144619
 22
0.378407682775713
 32
0
 13
0.896364226586593
 23
0.359820322180917
 33
0
  0
SOLID
  8
0
 62
8
 10
0.873139760185035
 20
0.383054522924411
 30
0
 11
0.866946569144619
 21
0.378407682775713
 31
0
 12
0.873139760185035
 22
0.383054522924411
 32
0
 13
0.896364226586593
 23
0.359820322180917
 33
0
  0
SOLID
  8
0
 62
8
 10
0.873139760185035
 20
0.383054522924411
 30
0
 11
0.896364226586593
 21
0.359820322180917
 31
0
 12
0.873139760185035
 22
0.383054522924411
 32
0
 13
0.90720231090732
 23
0.37685873605948
 33
0
  0
SOLID
  8
0
 62
8
 10
0.873139760185035
 20
0.383054522924411
 30
0
 11
0.90720231090732
 21
0.37685873605948
 31
0
 12
0.873139760185035
 22
0.383054522924411
 32
0
 13
0.913395501947736
 23
0.386152416356877
 33
0
  0
SOLID
  8
0
 62
8
 10
0.880881248985554
 20
0.407837670384139
 30
0
 11
0.873139760185035
 21
0.383054522924411
 31
0
 12
0.880881248985554
 22
0.407837670384139
 32
0
 13
0.913395501947736
 23
0.386152416356877
 33
0
  0
SOLID
  8
0
 62
8
 10
0.901009119866905
 20
0.421778190830235
 30
0
 11
0.880881248985554
 21
0.407837670384139
 31
0
 12
0.901009119866905
 22
0.421778190830235
 32
0
 13
0.913395501947736
 23
0.386152416356877
 33
0
  0
SOLID
  8
0
 62
8
 10
0.901009119866905
 20
0.421778190830235
 30
0
 11
0.913395501947736
 21
0.386152416356877
 31
0
 12
0.901009119866905
 22
0.421778190830235
 32
0
 13
0.927330181788671
 23
0.395446096654275
 33
0
  0
SOLID
  8
0
 62
8
 10
0.978424007872098
 20
0.423327137546468
 30
0
 11
0.961392732510956
 21
0.458952912019827
 31
0
 12
0.978424007872098
 22
0.423327137546468
 32
0
 13
0.939716563869502
 23
0.451208178438662
 33
0
  0
SOLID
  8
0
 62
8
 10
0.939716563869502
 20
0.451208178438662
 30
0
 11
0.921136990748255
 21
0.448110285006196
 31
0
 12
0.939716563869502
 22
0.451208178438662
 32
0
 13
0.901009119866905
 23
0.421778190830235
 33
0
  0
SOLID
  8
0
 62
8
 10
0.950554648190229
 20
0.401641883519207
 30
0
 11
0.978424007872098
 21
0.423327137546468
 31
0
 12
0.950554648190229
 22
0.401641883519207
 32
0
 13
0.939716563869502
 23
0.451208178438662
 33
0
  0
SOLID
  8
0
 62
8
 10
0.901009119866905
 20
0.421778190830235
 30
0
 11
0.927330181788671
 21
0.395446096654275
 31
0
 12
0.901009119866905
 22
0.421778190830235
 32
0
 13
0.950554648190229
 23
0.401641883519207
 33
0
  0
SOLID
  8
0
 62
8
 10
0.901009119866905
 20
0.421778190830235
 30
0
 11
0.950554648190229
 21
0.401641883519207
 31
0
 12
0.901009119866905
 22
0.421778190830235
 32
0
 13
0.939716563869502
 23
0.451208178438662
 33
0
  0
SOLID
  8
0
 62
8
 10
0.851655569467924
 20
0.660403553603219
 30
0
 11
0.847008139034427
 21
0.661953346391656
 31
0
 12
0.851655569467924
 22
0.660403553603219
 32
0
 13
0.839262421645266
 23
0.661953346391656
 33
0
  0
SOLID
  8
0
 62
8
 10
0.851655569467924
 20
0.660403553603219
 30
0
 11
0.839262421645266
 21
0.661953346391656
 31
0
 12
0.851655569467924
 22
0.660403553603219
 32
0
 13
0.833065847733937
 23
0.654204382449471
 33
0
  0
SOLID
  8
0
 62
8
 10
0.819123556433446
 20
0.551918058412636
 30
0
 11
0.822221843389111
 21
0.539519716105141
 31
0
 12
0.819123556433446
 22
0.551918058412636
 32
0
 13
0.831516704256104
 23
0.530220959374519
 33
0
  0
SOLID
  8
0
 62
8
 10
0.826869273822607
 20
0.613909769950112
 30
0
 11
0.826869273822607
 21
0.603061220431054
 31
0
 12
0.826869273822607
 22
0.613909769950112
 32
0
 13
0.82841841730044
 23
0.587563292546685
 33
0
  0
SOLID
  8
0
 62
8
 10
0.905875591192053
 20
0.536420130528267
 30
0
 11
0.898129873802892
 21
0.542619301682015
 31
0
 12
0.905875591192053
 22
0.536420130528267
 32
0
 13
0.881089295546737
 23
0.545718887258888
 33
0
  0
SOLID
  8
0
 62
8
 10
0.943055034660027
 20
0.830880760331278
 30
0
 11
0.927563599881705
 21
0.830880760331278
 31
0
 12
0.943055034660027
 22
0.830880760331278
 32
0
 13
0.921367025970376
 23
0.813833039658472
 33
0
  0
SOLID
  8
0
 62
8
 10
0.823770986866943
 20
0.641806040141976
 30
0
 11
0.817574412955614
 21
0.635606868988228
 31
0
 12
0.823770986866943
 22
0.641806040141976
 32
0
 13
0.826869273822607
 23
0.613909769950112
 33
0
  0
SOLID
  8
0
 62
8
 10
0.92446531292604
 20
0.494575725240471
 30
0
 11
0.932211030315201
 21
0.493025932452034
 31
0
 12
0.92446531292604
 22
0.494575725240471
 32
0
 13
0.952349895527021
 23
0.499225103605781
 33
0
  0
SOLID
  8
0
 62
8
 10
0.943055034660027
 20
0.589113085335122
 30
0
 11
0.936858460748698
 21
0.575164950239189
 31
0
 12
0.943055034660027
 22
0.589113085335122
 32
0
 13
0.936858460748698
 23
0.561216815143257
 33
0
  0
SOLID
  8
0
 62
8
 10
0.961644756394014
 20
0.539519716105141
 30
0
 11
0.967841330305343
 21
0.55501764398951
 31
0
 12
0.961644756394014
 22
0.539519716105141
 32
0
 13
0.970939617261008
 23
0.570515571873879
 33
0
  0
SOLID
  8
0
 62
8
 10
0.851655569467924
 20
0.660403553603219
 30
0
 11
0.833065847733937
 21
0.654204382449471
 31
0
 12
0.851655569467924
 22
0.660403553603219
 32
0
 13
0.823770986866943
 23
0.641806040141976
 33
0
  0
SOLID
  8
0
 62
8
 10
0.921367025970376
 20
0.813833039658472
 30
0
 11
0.929112743359537
 21
0.795235526197229
 31
0
 12
0.921367025970376
 22
0.813833039658472
 32
0
 13
0.935309317270866
 23
0.782837183889734
 33
0
  0
SOLID
  8
0
 62
8
 10
0.943055034660027
 20
0.737893193025064
 30
0
 11
0.943055034660027
 21
0.720845472352258
 31
0
 12
0.943055034660027
 22
0.737893193025064
 32
0
 13
0.944604178137859
 23
0.703797751679452
 33
0
  0
SOLID
  8
0
 62
8
 10
0.936858460748698
 20
0.561216815143257
 30
0
 11
0.930661886837369
 21
0.539519716105141
 31
0
 12
0.936858460748698
 22
0.561216815143257
 32
0
 13
0.927563599881705
 23
0.527121373797646
 33
0
  0
SOLID
  8
0
 62
8
 10
0.831516704256104
 20
0.530220959374519
 30
0
 11
0.84236070860093
 21
0.516272824278587
 31
0
 12
0.831516704256104
 22
0.530220959374519
 32
0
 13
0.860950430334917
 23
0.508523860336403
 33
0
  0
SOLID
  8
0
 62
8
 10
0.82841841730044
 20
0.587563292546685
 30
0
 11
0.822221843389111
 21
0.567415986297005
 31
0
 12
0.82841841730044
 22
0.587563292546685
 32
0
 13
0.819123556433446
 23
0.551918058412636
 33
0
  0
SOLID
  8
0
 62
8
 10
0.978685334650169
 20
0.671252103122277
 30
0
 11
0.978685334650169
 21
0.691399409371957
 31
0
 12
0.978685334650169
 22
0.671252103122277
 32
0
 13
0.977136191172337
 23
0.708447130044763
 33
0
  0
SOLID
  8
0
 62
8
 10
0.867147004246246
 20
0.626308112257607
 30
0
 11
0.867147004246246
 21
0.635606868988228
 31
0
 12
0.867147004246246
 22
0.626308112257607
 32
0
 13
0.851655569467924
 23
0.660403553603219
 33
0
  0
SOLID
  8
0
 62
8
 10
0.92446531292604
 20
0.494575725240471
 30
0
 11
0.952349895527021
 21
0.499225103605781
 31
0
 12
0.92446531292604
 22
0.494575725240471
 32
0
 13
0.955448182482685
 23
0.517822617067024
 33
0
  0
SOLID
  8
0
 62
8
 10
0.978685334650169
 20
0.747191949755685
 30
0
 11
0.980234478128002
 21
0.761140084851617
 31
0
 12
0.978685334650169
 22
0.747191949755685
 32
0
 13
0.980234478128002
 23
0.785936769466608
 33
0
  0
SOLID
  8
0
 62
8
 10
0.949251608571356
 20
0.660403553603219
 30
0
 11
0.950800752049189
 21
0.638706454565102
 31
0
 12
0.949251608571356
 22
0.660403553603219
 32
0
 13
0.952349895527021
 23
0.621658733892296
 33
0
  0
SOLID
  8
0
 62
8
 10
0.860950430334917
 20
0.508523860336403
 30
0
 11
0.884187582502401
 21
0.502324689182655
 31
0
 12
0.860950430334917
 22
0.508523860336403
 32
0
 13
0.899679017280724
 23
0.499225103605781
 33
0
  0
SOLID
  8
0
 62
8
 10
0.905875591192053
 20
0.536420130528267
 30
0
 11
0.881089295546737
 21
0.545718887258888
 31
0
 12
0.905875591192053
 22
0.536420130528267
 32
0
 13
0.865597860768414
 23
0.545718887258888
 33
0
  0
SOLID
  8
0
 62
8
 10
0.978685334650169
 20
0.598411842065743
 30
0
 11
0.980234478128002
 21
0.615459562738549
 31
0
 12
0.978685334650169
 22
0.598411842065743
 32
0
 13
0.981783621605834
 23
0.643355832930413
 33
0
  0
SOLID
  8
0
 62
8
 10
0.867147004246246
 20
0.626308112257607
 30
0
 11
0.851655569467924
 21
0.660403553603219
 31
0
 12
0.867147004246246
 22
0.626308112257607
 32
0
 13
0.823770986866943
 23
0.641806040141976
 33
0
  0
SOLID
  8
0
 62
8
 10
0.867147004246246
 20
0.626308112257607
 30
0
 11
0.823770986866943
 21
0.641806040141976
 31
0
 12
0.867147004246246
 22
0.626308112257607
 32
0
 13
0.826869273822607
 23
0.613909769950112
 33
0
  0
SOLID
  8
0
 62
8
 10
0.864048717290582
 20
0.595312256488869
 30
0
 11
0.867147004246246
 21
0.626308112257607
 31
0
 12
0.864048717290582
 22
0.595312256488869
 32
0
 13
0.826869273822607
 23
0.613909769950112
 33
0
  0
SOLID
  8
0
 62
8
 10
0.864048717290582
 20
0.595312256488869
 30
0
 11
0.826869273822607
 21
0.613909769950112
 31
0
 12
0.864048717290582
 22
0.595312256488869
 32
0
 13
0.82841841730044
 23
0.587563292546685
 33
0
  0
SOLID
  8
0
 62
8
 10
0.865597860768414
 20
0.567415986297005
 30
0
 11
0.864048717290582
 21
0.595312256488869
 31
0
 12
0.865597860768414
 22
0.567415986297005
 32
0
 13
0.82841841730044
 23
0.587563292546685
 33
0
  0
SOLID
  8
0
 62
8
 10
0.967841330305343
 20
0.810733454081598
 30
0
 11
0.943055034660027
 21
0.830880760331278
 31
0
 12
0.967841330305343
 22
0.810733454081598
 32
0
 13
0.921367025970376
 23
0.813833039658472
 33
0
  0
SOLID
  8
0
 62
8
 10
0.967841330305343
 20
0.810733454081598
 30
0
 11
0.921367025970376
 21
0.813833039658472
 31
0
 12
0.967841330305343
 22
0.810733454081598
 32
0
 13
0.935309317270866
 23
0.782837183889734
 33
0
  0
SOLID
  8
0
 62
8
 10
0.980234478128002
 20
0.785936769466608
 30
0
 11
0.967841330305343
 21
0.810733454081598
 31
0
 12
0.980234478128002
 22
0.785936769466608
 32
0
 13
0.935309317270866
 23
0.782837183889734
 33
0
  0
SOLID
  8
0
 62
8
 10
0.980234478128002
 20
0.785936769466608
 30
0
 11
0.935309317270866
 21
0.782837183889734
 31
0
 12
0.980234478128002
 22
0.785936769466608
 32
0
 13
0.941505891182195
 23
0.764239670428491
 33
0
  0
SOLID
  8
0
 62
8
 10
0.978685334650169
 20
0.747191949755685
 30
0
 11
0.980234478128002
 21
0.785936769466608
 31
0
 12
0.978685334650169
 22
0.747191949755685
 32
0
 13
0.941505891182195
 23
0.764239670428491
 33
0
  0
SOLID
  8
0
 62
8
 10
0.978685334650169
 20
0.747191949755685
 30
0
 11
0.941505891182195
 21
0.764239670428491
 31
0
 12
0.978685334650169
 22
0.747191949755685
 32
0
 13
0.943055034660027
 23
0.737893193025064
 33
0
  0
SOLID
  8
0
 62
8
 10
0.977136191172337
 20
0.708447130044763
 30
0
 11
0.978685334650169
 21
0.747191949755685
 31
0
 12
0.977136191172337
 22
0.708447130044763
 32
0
 13
0.943055034660027
 23
0.737893193025064
 33
0
  0
SOLID
  8
0
 62
8
 10
0.977136191172337
 20
0.708447130044763
 30
0
 11
0.943055034660027
 21
0.737893193025064
 31
0
 12
0.977136191172337
 22
0.708447130044763
 32
0
 13
0.944604178137859
 23
0.703797751679452
 33
0
  0
SOLID
  8
0
 62
8
 10
0.977136191172337
 20
0.708447130044763
 30
0
 11
0.944604178137859
 21
0.703797751679452
 31
0
 12
0.977136191172337
 22
0.708447130044763
 32
0
 13
0.947702465093524
 23
0.679001067064462
 33
0
  0
SOLID
  8
0
 62
8
 10
0.978685334650169
 20
0.671252103122277
 30
0
 11
0.977136191172337
 21
0.708447130044763
 31
0
 12
0.978685334650169
 22
0.671252103122277
 32
0
 13
0.947702465093524
 23
0.679001067064462
 33
0
  0
SOLID
  8
0
 62
8
 10
0.978685334650169
 20
0.671252103122277
 30
0
 11
0.947702465093524
 21
0.679001067064462
 31
0
 12
0.978685334650169
 22
0.671252103122277
 32
0
 13
0.949251608571356
 23
0.660403553603219
 33
0
  0
SOLID
  8
0
 62
8
 10
0.981783621605834
 20
0.643355832930413
 30
0
 11
0.978685334650169
 21
0.671252103122277
 31
0
 12
0.981783621605834
 22
0.643355832930413
 32
0
 13
0.949251608571356
 23
0.660403553603219
 33
0
  0
SOLID
  8
0
 62
8
 10
0.981783621605834
 20
0.643355832930413
 30
0
 11
0.949251608571356
 21
0.660403553603219
 31
0
 12
0.981783621605834
 22
0.643355832930413
 32
0
 13
0.952349895527021
 23
0.621658733892296
 33
0
  0
SOLID
  8
0
 62
8
 10
0.978685334650169
 20
0.598411842065743
 30
0
 11
0.981783621605834
 21
0.643355832930413
 31
0
 12
0.978685334650169
 22
0.598411842065743
 32
0
 13
0.952349895527021
 23
0.621658733892296
 33
0
  0
SOLID
  8
0
 62
8
 10
0.978685334650169
 20
0.598411842065743
 30
0
 11
0.952349895527021
 21
0.621658733892296
 31
0
 12
0.978685334650169
 22
0.598411842065743
 32
0
 13
0.943055034660027
 23
0.589113085335122
 33
0
  0
SOLID
  8
0
 62
8
 10
0.970939617261008
 20
0.570515571873879
 30
0
 11
0.978685334650169
 21
0.598411842065743
 31
0
 12
0.970939617261008
 22
0.570515571873879
 32
0
 13
0.943055034660027
 23
0.589113085335122
 33
0
  0
SOLID
  8
0
 62
8
 10
0.970939617261008
 20
0.570515571873879
 30
0
 11
0.943055034660027
 21
0.589113085335122
 31
0
 12
0.970939617261008
 22
0.570515571873879
 32
0
 13
0.936858460748698
 23
0.561216815143257
 33
0
  0
SOLID
  8
0
 62
8
 10
0.961644756394014
 20
0.539519716105141
 30
0
 11
0.970939617261008
 21
0.570515571873879
 31
0
 12
0.961644756394014
 22
0.539519716105141
 32
0
 13
0.936858460748698
 23
0.561216815143257
 33
0
  0
SOLID
  8
0
 62
8
 10
0.961644756394014
 20
0.539519716105141
 30
0
 11
0.936858460748698
 21
0.561216815143257
 31
0
 12
0.961644756394014
 22
0.539519716105141
 32
0
 13
0.927563599881705
 23
0.527121373797646
 33
0
  0
SOLID
  8
0
 62
8
 10
0.955448182482685
 20
0.517822617067024
 30
0
 11
0.961644756394014
 21
0.539519716105141
 31
0
 12
0.955448182482685
 22
0.517822617067024
 32
0
 13
0.927563599881705
 23
0.527121373797646
 33
0
  0
SOLID
  8
0
 62
8
 10
0.92446531292604
 20
0.494575725240471
 30
0
 11
0.955448182482685
 21
0.517822617067024
 31
0
 12
0.92446531292604
 22
0.494575725240471
 32
0
 13
0.927563599881705
 23
0.527121373797646
 33
0
  0
SOLID
  8
0
 62
8
 10
0.92446531292604
 20
0.494575725240471
 30
0
 11
0.927563599881705
 21
0.527121373797646
 31
0
 12
0.92446531292604
 22
0.494575725240471
 32
0
 13
0.921367025970376
 23
0.524021788220772
 33
0
  0
SOLID
  8
0
 62
8
 10
0.899679017280724
 20
0.499225103605781
 30
0
 11
0.92446531292604
 21
0.494575725240471
 31
0
 12
0.899679017280724
 22
0.499225103605781
 32
0
 13
0.921367025970376
 23
0.524021788220772
 33
0
  0
SOLID
  8
0
 62
8
 10
0.899679017280724
 20
0.499225103605781
 30
0
 11
0.921367025970376
 21
0.524021788220772
 31
0
 12
0.899679017280724
 22
0.499225103605781
 32
0
 13
0.905875591192053
 23
0.536420130528267
 33
0
  0
SOLID
  8
0
 62
8
 10
0.865597860768414
 20
0.567415986297005
 30
0
 11
0.82841841730044
 21
0.587563292546685
 31
0
 12
0.865597860768414
 22
0.567415986297005
 32
0
 13
0.819123556433446
 23
0.551918058412636
 33
0
  0
SOLID
  8
0
 62
8
 10
0.865597860768414
 20
0.545718887258888
 30
0
 11
0.865597860768414
 21
0.567415986297005
 31
0
 12
0.865597860768414
 22
0.545718887258888
 32
0
 13
0.819123556433446
 23
0.551918058412636
 33
0
  0
SOLID
  8
0
 62
8
 10
0.865597860768414
 20
0.545718887258888
 30
0
 11
0.819123556433446
 21
0.551918058412636
 31
0
 12
0.865597860768414
 22
0.545718887258888
 32
0
 13
0.831516704256104
 23
0.530220959374519
 33
0
  0
SOLID
  8
0
 62
8
 10
0.865597860768414
 20
0.545718887258888
 30
0
 11
0.831516704256104
 21
0.530220959374519
 31
0
 12
0.865597860768414
 22
0.545718887258888
 32
0
 13
0.860950430334917
 23
0.508523860336403
 33
0
  0
SOLID
  8
0
 62
8
 10
0.905875591192053
 20
0.536420130528267
 30
0
 11
0.865597860768414
 21
0.545718887258888
 31
0
 12
0.905875591192053
 22
0.536420130528267
 32
0
 13
0.860950430334917
 23
0.508523860336403
 33
0
  0
SOLID
  8
0
 62
8
 10
0.899679017280724
 20
0.499225103605781
 30
0
 11
0.905875591192053
 21
0.536420130528267
 31
0
 12
0.899679017280724
 22
0.499225103605781
 32
0
 13
0.860950430334917
 23
0.508523860336403
 33
0
  0
SOLID
  8
0
 62
8
 10
0.95854646943835
 20
0.302401419474295
 30
0
 11
0.95854646943835
 21
0.31015038341648
 31
0
 12
0.95854646943835
 22
0.302401419474295
 32
0
 13
0.946153321615692
 23
0.322548725723975
 33
0
  0
SOLID
  8
0
 62
8
 10
0.975587047694505
 20
0.150521726207479
 30
0
 11
0.964743043349679
 21
0.152071518995916
 31
0
 12
0.975587047694505
 22
0.150521726207479
 32
0
 13
0.952349895527021
 23
0.142772762265295
 33
0
  0
SOLID
  8
0
 62
8
 10
0.854753856423588
 20
0.11022711370812
 30
0
 11
0.857852143379253
 21
0.108677320919683
 31
0
 12
0.854753856423588
 22
0.11022711370812
 32
0
 13
0.877991008591072
 23
0.102478149765936
 33
0
  0
SOLID
  8
0
 62
8
 10
0.984881908561498
 20
0.127274834380926
 30
0
 11
0.984881908561498
 21
0.136573591111547
 31
0
 12
0.984881908561498
 22
0.127274834380926
 32
0
 13
0.975587047694505
 23
0.150521726207479
 33
0
  0
SOLID
  8
0
 62
8
 10
0.898129873802892
 20
0.328747896877723
 30
0
 11
0.895031586847227
 21
0.311700176204917
 31
0
 12
0.898129873802892
 22
0.328747896877723
 32
0
 13
0.902777304236388
 23
0.303951212262732
 33
0
  0
SOLID
  8
0
 62
8
 10
0.929112743359537
 20
0.228011365629324
 30
0
 11
0.919817882492543
 21
0.22026240168714
 31
0
 12
0.929112743359537
 22
0.228011365629324
 32
0
 13
0.908973878147717
 23
0.210963644956518
 33
0
  0
SOLID
  8
0
 62
8
 10
0.984881908561498
 20
0.356644167069587
 30
0
 11
0.983332765083666
 21
0.37524168053083
 31
0
 12
0.984881908561498
 22
0.356644167069587
 32
0
 13
0.964743043349679
 23
0.376791473319266
 33
0
  0
SOLID
  8
0
 62
8
 10
0.964743043349679
 20
0.376791473319266
 30
0
 11
0.950800752049189
 21
0.370592302165519
 31
0
 12
0.964743043349679
 22
0.376791473319266
 32
0
 13
0.941505891182195
 23
0.359743752646461
 33
0
  0
SOLID
  8
0
 62
8
 10
0.969390473783176
 20
0.238859915148383
 30
0
 11
0.970939617261008
 21
0.248158671879004
 31
0
 12
0.969390473783176
 22
0.238859915148383
 32
0
 13
0.967841330305343
 23
0.268305978128684
 33
0
  0
SOLID
  8
0
 62
8
 10
0.947702465093524
 20
2.65383031325276E-02
 30
0
 11
0.964743043349679
 21
2.49885103440907E-02
 31
0
 12
0.947702465093524
 22
2.65383031325276E-02
 32
0
 13
0.974037904216672
 23
4.04864382284597E-02
 33
0
  0
SOLID
  8
0
 62
8
 10
0.860950430334917
 20
0.183067374764654
 30
0
 11
0.84236070860093
 21
0.176868203610907
 31
0
 12
0.860950430334917
 22
0.183067374764654
 32
0
 13
0.836164134689601
 23
0.166019654091848
 33
0
  0
SOLID
  8
0
 62
8
 10
0.916719595536879
 20
4.04864382284597E-02
 30
0
 11
0.933760173793034
 21
3.11876814978383E-02
 31
0
 12
0.916719595536879
 22
4.04864382284597E-02
 32
0
 13
0.947702465093524
 23
2.65383031325276E-02
 33
0
  0
SOLID
  8
0
 62
8
 10
0.927563599881705
 20
0.347345410338965
 30
0
 11
0.91052302162555
 21
0.338046653608344
 31
0
 12
0.927563599881705
 22
0.347345410338965
 32
0
 13
0.898129873802892
 23
0.328747896877723
 33
0
  0
SOLID
  8
0
 62
8
 10
0.95854646943835
 20
0.2900030771668
 30
0
 11
0.95854646943835
 21
0.302401419474295
 31
0
 12
0.95854646943835
 22
0.2900030771668
 32
0
 13
0.946153321615692
 23
0.322548725723975
 33
0
  0
SOLID
  8
0
 62
8
 10
0.952349895527021
 20
0.207864059379645
 30
0
 11
0.960095612916182
 21
0.217162816110266
 31
0
 12
0.952349895527021
 22
0.207864059379645
 32
0
 13
0.969390473783176
 23
0.238859915148383
 33
0
  0
SOLID
  8
0
 62
8
 10
0.918268739014711
 20
0.113326699284994
 30
0
 11
0.902777304236388
 21
0.127274834380926
 31
0
 12
0.918268739014711
 22
0.113326699284994
 32
0
 13
0.888835012935898
 23
0.133474005534674
 33
0
  0
SOLID
  8
0
 62
8
 10
0.984881908561498
 20
0.127274834380926
 30
0
 11
0.975587047694505
 21
0.150521726207479
 31
0
 12
0.984881908561498
 22
0.127274834380926
 32
0
 13
0.952349895527021
 23
0.142772762265295
 33
0
  0
SOLID
  8
0
 62
8
 10
0.984881908561498
 20
0.127274834380926
 30
0
 11
0.952349895527021
 21
0.142772762265295
 31
0
 12
0.984881908561498
 22
0.127274834380926
 32
0
 13
0.950800752049189
 23
0.116426284861868
 33
0
  0
SOLID
  8
0
 62
8
 10
0.981783621605834
 20
0.105577735342809
 30
0
 11
0.984881908561498
 21
0.127274834380926
 31
0
 12
0.981783621605834
 22
0.105577735342809
 32
0
 13
0.950800752049189
 23
0.116426284861868
 33
0
  0
SOLID
  8
0
 62
8
 10
0.981783621605834
 20
0.105577735342809
 30
0
 11
0.950800752049189
 21
0.116426284861868
 31
0
 12
0.981783621605834
 22
0.105577735342809
 32
0
 13
0.953899039004853
 23
0.100928356977499
 33
0
  0
SOLID
  8
0
 62
8
 10
0.980234478128002
 20
9.16296002468773E-02
 30
0
 11
0.981783621605834
 21
0.105577735342809
 31
0
 12
0.980234478128002
 22
9.16296002468773E-02
 32
0
 13
0.953899039004853
 23
0.100928356977499
 33
0
  0
SOLID
  8
0
 62
8
 10
0.980234478128002
 20
9.16296002468773E-02
 30
0
 11
0.953899039004853
 21
0.100928356977499
 31
0
 12
0.980234478128002
 22
9.16296002468773E-02
 32
0
 13
0.947702465093524
 23
7.76814651509452E-02
 33
0
  0
SOLID
  8
0
 62
8
 10
0.974037904216672
 20
6.37333300550132E-02
 30
0
 11
0.980234478128002
 21
9.16296002468773E-02
 31
0
 12
0.974037904216672
 22
6.37333300550132E-02
 32
0
 13
0.947702465093524
 23
7.76814651509452E-02
 33
0
  0
SOLID
  8
0
 62
8
 10
0.974037904216672
 20
6.37333300550132E-02
 30
0
 11
0.947702465093524
 21
7.76814651509452E-02
 31
0
 12
0.974037904216672
 22
6.37333300550132E-02
 32
0
 13
0.944604178137859
 23
7.30320867856346E-02
 33
0
  0
SOLID
  8
0
 62
8
 10
0.899679017280724
 20
0.153621311784353
 30
0
 11
0.919817882492543
 21
0.162920068514975
 31
0
 12
0.899679017280724
 22
0.153621311784353
 32
0
 13
0.930661886837369
 23
0.172218825245596
 33
0
  0
SOLID
  8
0
 62
8
 10
0.980234478128002
 20
0.342696031973655
 30
0
 11
0.984881908561498
 21
0.356644167069587
 31
0
 12
0.980234478128002
 22
0.342696031973655
 32
0
 13
0.964743043349679
 23
0.376791473319266
 33
0
  0
SOLID
  8
0
 62
8
 10
0.898129873802892
 20
7.30320867856346E-02
 30
0
 11
0.905875591192053
 21
5.59843661128287E-02
 31
0
 12
0.898129873802892
 22
7.30320867856346E-02
 32
0
 13
0.916719595536879
 23
4.04864382284597E-02
 33
0
  0
SOLID
  8
0
 62
8
 10
0.834614991211769
 20
0.144322555053732
 30
0
 11
0.834614991211769
 21
0.124175248804052
 31
0
 12
0.834614991211769
 22
0.144322555053732
 32
0
 13
0.854753856423588
 23
0.11022711370812
 33
0
  0
SOLID
  8
0
 62
8
 10
0.930661886837369
 20
0.172218825245596
 30
0
 11
0.943055034660027
 21
0.192366131495276
 31
0
 12
0.930661886837369
 22
0.172218825245596
 32
0
 13
0.952349895527021
 23
0.207864059379645
 33
0
  0
SOLID
  8
0
 62
8
 10
0.980234478128002
 20
0.342696031973655
 30
0
 11
0.964743043349679
 21
0.376791473319266
 31
0
 12
0.980234478128002
 22
0.342696031973655
 32
0
 13
0.941505891182195
 23
0.359743752646461
 33
0
  0
SOLID
  8
0
 62
8
 10
0.946153321615692
 20
0.322548725723975
 30
0
 11
0.980234478128002
 21
0.342696031973655
 31
0
 12
0.946153321615692
 22
0.322548725723975
 32
0
 13
0.941505891182195
 23
0.359743752646461
 33
0
  0
SOLID
  8
0
 62
8
 10
0.946153321615692
 20
0.322548725723975
 30
0
 11
0.941505891182195
 21
0.359743752646461
 31
0
 12
0.946153321615692
 22
0.322548725723975
 32
0
 13
0.927563599881705
 23
0.347345410338965
 33
0
  0
SOLID
  8
0
 62
8
 10
0.974037904216672
 20
4.04864382284597E-02
 30
0
 11
0.974037904216672
 21
6.37333300550132E-02
 31
0
 12
0.974037904216672
 22
4.04864382284597E-02
 32
0
 13
0.944604178137859
 23
7.30320867856346E-02
 33
0
  0
SOLID
  8
0
 62
8
 10
0.898129873802892
 20
0.328747896877723
 30
0
 11
0.902777304236388
 21
0.303951212262732
 31
0
 12
0.898129873802892
 22
0.328747896877723
 32
0
 13
0.919817882492543
 23
0.2900030771668
 33
0
  0
SOLID
  8
0
 62
8
 10
0.87644186511324
 20
0.186166960341528
 30
0
 11
0.860950430334917
 21
0.183067374764654
 31
0
 12
0.87644186511324
 22
0.186166960341528
 32
0
 13
0.836164134689601
 23
0.166019654091848
 33
0
  0
SOLID
  8
0
 62
8
 10
0.929112743359537
 20
0.228011365629324
 30
0
 11
0.908973878147717
 21
0.210963644956518
 31
0
 12
0.929112743359537
 22
0.228011365629324
 32
0
 13
0.896580730325059
 23
0.195465717072149
 33
0
  0
SOLID
  8
0
 62
8
 10
0.947702465093524
 20
2.65383031325276E-02
 30
0
 11
0.974037904216672
 21
4.04864382284597E-02
 31
0
 12
0.947702465093524
 22
2.65383031325276E-02
 32
0
 13
0.944604178137859
 23
7.30320867856346E-02
 33
0
  0
SOLID
  8
0
 62
8
 10
0.916719595536879
 20
4.04864382284597E-02
 30
0
 11
0.947702465093524
 21
2.65383031325276E-02
 31
0
 12
0.916719595536879
 22
4.04864382284597E-02
 32
0
 13
0.944604178137859
 23
7.30320867856346E-02
 33
0
  0
SOLID
  8
0
 62
8
 10
0.898129873802892
 20
7.30320867856346E-02
 30
0
 11
0.916719595536879
 21
4.04864382284597E-02
 31
0
 12
0.898129873802892
 22
7.30320867856346E-02
 32
0
 13
0.944604178137859
 23
7.30320867856346E-02
 33
0
  0
SOLID
  8
0
 62
8
 10
0.898129873802892
 20
7.30320867856346E-02
 30
0
 11
0.944604178137859
 21
7.30320867856346E-02
 31
0
 12
0.898129873802892
 22
7.30320867856346E-02
 32
0
 13
0.927563599881705
 23
9.78287714006249E-02
 33
0
  0
SOLID
  8
0
 62
8
 10
0.885736725980233
 20
9.47291858237511E-02
 30
0
 11
0.898129873802892
 21
7.30320867856346E-02
 31
0
 12
0.885736725980233
 22
9.47291858237511E-02
 32
0
 13
0.927563599881705
 23
9.78287714006249E-02
 33
0
  0
SOLID
  8
0
 62
8
 10
0.885736725980233
 20
9.47291858237511E-02
 30
0
 11
0.927563599881705
 21
9.78287714006249E-02
 31
0
 12
0.885736725980233
 22
9.47291858237511E-02
 32
0
 13
0.918268739014711
 23
0.113326699284994
 33
0
  0
SOLID
  8
0
 62
8
 10
0.885736725980233
 20
9.47291858237511E-02
 30
0
 11
0.918268739014711
 21
0.113326699284994
 31
0
 12
0.885736725980233
 22
9.47291858237511E-02
 32
0
 13
0.888835012935898
 23
0.133474005534674
 33
0
  0
SOLID
  8
0
 62
8
 10
0.877991008591072
 20
0.102478149765936
 30
0
 11
0.885736725980233
 21
9.47291858237511E-02
 31
0
 12
0.877991008591072
 22
0.102478149765936
 32
0
 13
0.888835012935898
 23
0.133474005534674
 33
0
  0
SOLID
  8
0
 62
8
 10
0.854753856423588
 20
0.11022711370812
 30
0
 11
0.877991008591072
 21
0.102478149765936
 31
0
 12
0.854753856423588
 22
0.11022711370812
 32
0
 13
0.888835012935898
 23
0.133474005534674
 33
0
  0
SOLID
  8
0
 62
8
 10
0.854753856423588
 20
0.11022711370812
 30
0
 11
0.888835012935898
 21
0.133474005534674
 31
0
 12
0.854753856423588
 22
0.11022711370812
 32
0
 13
0.888835012935898
 23
0.144322555053732
 33
0
  0
SOLID
  8
0
 62
8
 10
0.946153321615692
 20
0.322548725723975
 30
0
 11
0.927563599881705
 21
0.347345410338965
 31
0
 12
0.946153321615692
 22
0.322548725723975
 32
0
 13
0.898129873802892
 23
0.328747896877723
 33
0
  0
SOLID
  8
0
 62
8
 10
0.946153321615692
 20
0.322548725723975
 30
0
 11
0.898129873802892
 21
0.328747896877723
 31
0
 12
0.946153321615692
 22
0.322548725723975
 32
0
 13
0.919817882492543
 23
0.2900030771668
 33
0
  0
SOLID
  8
0
 62
8
 10
0.95854646943835
 20
0.2900030771668
 30
0
 11
0.946153321615692
 21
0.322548725723975
 31
0
 12
0.95854646943835
 22
0.2900030771668
 32
0
 13
0.919817882492543
 23
0.2900030771668
 33
0
  0
SOLID
  8
0
 62
8
 10
0.95854646943835
 20
0.2900030771668
 30
0
 11
0.919817882492543
 21
0.2900030771668
 31
0
 12
0.95854646943835
 22
0.2900030771668
 32
0
 13
0.92446531292604
 23
0.279154527647742
 33
0
  0
SOLID
  8
0
 62
8
 10
0.95854646943835
 20
0.2900030771668
 30
0
 11
0.92446531292604
 21
0.279154527647742
 31
0
 12
0.95854646943835
 22
0.2900030771668
 32
0
 13
0.929112743359537
 23
0.263656599763373
 33
0
  0
SOLID
  8
0
 62
8
 10
0.967841330305343
 20
0.268305978128684
 30
0
 11
0.95854646943835
 21
0.2900030771668
 31
0
 12
0.967841330305343
 22
0.268305978128684
 32
0
 13
0.929112743359537
 23
0.263656599763373
 33
0
  0
SOLID
  8
0
 62
8
 10
0.967841330305343
 20
0.268305978128684
 30
0
 11
0.929112743359537
 21
0.263656599763373
 31
0
 12
0.967841330305343
 22
0.268305978128684
 32
0
 13
0.929112743359537
 23
0.243509293513693
 33
0
  0
SOLID
  8
0
 62
8
 10
0.969390473783176
 20
0.238859915148383
 30
0
 11
0.967841330305343
 21
0.268305978128684
 31
0
 12
0.969390473783176
 22
0.238859915148383
 32
0
 13
0.929112743359537
 23
0.243509293513693
 33
0
  0
SOLID
  8
0
 62
8
 10
0.969390473783176
 20
0.238859915148383
 30
0
 11
0.929112743359537
 21
0.243509293513693
 31
0
 12
0.969390473783176
 22
0.238859915148383
 32
0
 13
0.929112743359537
 23
0.228011365629324
 33
0
  0
SOLID
  8
0
 62
8
 10
0.952349895527021
 20
0.207864059379645
 30
0
 11
0.969390473783176
 21
0.238859915148383
 31
0
 12
0.952349895527021
 22
0.207864059379645
 32
0
 13
0.929112743359537
 23
0.228011365629324
 33
0
  0
SOLID
  8
0
 62
8
 10
0.834614991211769
 20
0.144322555053732
 30
0
 11
0.854753856423588
 21
0.11022711370812
 31
0
 12
0.834614991211769
 22
0.144322555053732
 32
0
 13
0.888835012935898
 23
0.144322555053732
 33
0
  0
SOLID
  8
0
 62
8
 10
0.930661886837369
 20
0.172218825245596
 30
0
 11
0.952349895527021
 21
0.207864059379645
 31
0
 12
0.930661886837369
 22
0.172218825245596
 32
0
 13
0.929112743359537
 23
0.228011365629324
 33
0
  0
SOLID
  8
0
 62
8
 10
0.930661886837369
 20
0.172218825245596
 30
0
 11
0.929112743359537
 21
0.228011365629324
 31
0
 12
0.930661886837369
 22
0.172218825245596
 32
0
 13
0.896580730325059
 23
0.195465717072149
 33
0
  0
SOLID
  8
0
 62
8
 10
0.899679017280724
 20
0.153621311784353
 30
0
 11
0.930661886837369
 21
0.172218825245596
 31
0
 12
0.899679017280724
 22
0.153621311784353
 32
0
 13
0.896580730325059
 23
0.195465717072149
 33
0
  0
SOLID
  8
0
 62
8
 10
0.899679017280724
 20
0.153621311784353
 30
0
 11
0.896580730325059
 21
0.195465717072149
 31
0
 12
0.899679017280724
 22
0.153621311784353
 32
0
 13
0.87644186511324
 23
0.186166960341528
 33
0
  0
SOLID
  8
0
 62
8
 10
0.888835012935898
 20
0.144322555053732
 30
0
 11
0.899679017280724
 21
0.153621311784353
 31
0
 12
0.888835012935898
 22
0.144322555053732
 32
0
 13
0.87644186511324
 23
0.186166960341528
 33
0
  0
SOLID
  8
0
 62
8
 10
0.888835012935898
 20
0.144322555053732
 30
0
 11
0.87644186511324
 21
0.186166960341528
 31
0
 12
0.888835012935898
 22
0.144322555053732
 32
0
 13
0.836164134689601
 23
0.166019654091848
 33
0
  0
SOLID
  8
0
 62
8
 10
0.834614991211769
 20
0.144322555053732
 30
0
 11
0.888835012935898
 21
0.144322555053732
 31
0
 12
0.834614991211769
 22
0.144322555053732
 32
0
 13
0.836164134689601
 23
0.166019654091848
 33
0
  0
SOLID
  8
0
 62
8
 10
0.642443393929557
 20
0.161555142503098
 30
0
 11
0.626960416328518
 21
0.160006195786865
 31
0
 12
0.642443393929557
 22
0.161555142503098
 32
0
 13
0.630057011848726
 23
0.142967781908302
 33
0
  0
SOLID
  8
0
 62
8
 10
0.876236355705243
 20
1.13073110285006E-02
 30
0
 11
0.891719333306281
 21
1.28562577447336E-02
 31
0
 12
0.876236355705243
 22
1.13073110285006E-02
 32
0
 13
0.891719333306281
 23
2.83457249070632E-02
 33
0
  0
SOLID
  8
0
 62
8
 10
0.653281478250284
 20
0.1522614622057
 30
0
 11
0.642443393929557
 21
0.161555142503098
 31
0
 12
0.653281478250284
 22
0.1522614622057
 32
0
 13
0.630057011848726
 23
0.142967781908302
 33
0
  0
SOLID
  8
0
 62
8
 10
0.653281478250284
 20
0.1522614622057
 30
0
 11
0.630057011848726
 21
0.142967781908302
 31
0
 12
0.653281478250284
 22
0.1522614622057
 32
0
 13
0.653281478250284
 23
0.12592936802974
 33
0
  0
SOLID
  8
0
 62
8
 10
0.839077209462749
 20
8.41078066914498E-02
 30
0
 11
0.83133572066223
 21
8.87546468401487E-02
 31
0
 12
0.839077209462749
 22
8.41078066914498E-02
 32
0
 13
0.812756147540983
 23
9.34014869888476E-02
 33
0
  0
SOLID
  8
0
 62
8
 10
0.885526142265866
 20
0.285470879801735
 30
0
 11
0.870043164664827
 21
0.279275092936803
 31
0
 12
0.885526142265866
 22
0.285470879801735
 32
0
 13
0.860753378104204
 23
0.269981412639405
 33
0
  0
SOLID
  8
0
 62
8
 10
0.772500405778283
 20
0.183240396530359
 30
0
 11
0.789531681139425
 21
0.190985130111524
 31
0
 12
0.772500405778283
 22
0.183240396530359
 32
0
 13
0.798821467700049
 23
0.197180916976456
 33
0
  0
SOLID
  8
0
 62
8
 10
0.805014658740464
 20
0.133674101610905
 30
0
 11
0.800369765460152
 21
0.149163568773234
 31
0
 12
0.805014658740464
 22
0.133674101610905
 32
0
 13
0.787983383379321
 23
0.158457249070632
 33
0
  0
SOLID
  8
0
 62
8
 10
0.882429546745658
 20
4.84820322180917E-02
 30
0
 11
0.874688057945139
 21
6.55204460966543E-02
 31
0
 12
0.882429546745658
 22
4.84820322180917E-02
 32
0
 13
0.866946569144619
 23
7.48141263940521E-02
 33
0
  0
SOLID
  8
0
 62
8
 10
0.668764455851323
 20
0.155359355638166
 30
0
 11
0.653281478250284
 21
0.1522614622057
 31
0
 12
0.668764455851323
 22
0.155359355638166
 32
0
 13
0.653281478250284
 23
0.12592936802974
 33
0
  0
SOLID
  8
0
 62
8
 10
0.668764455851323
 20
0.155359355638166
 30
0
 11
0.653281478250284
 21
0.12592936802974
 31
0
 12
0.668764455851323
 22
0.155359355638166
 32
0
 13
0.684247433452362
 23
0.132125154894672
 33
0
  0
SOLID
  8
0
 62
8
 10
0.856108484823892
 20
3.14436183395291E-02
 30
0
 11
0.876236355705243
 21
1.13073110285006E-02
 31
0
 12
0.856108484823892
 22
3.14436183395291E-02
 32
0
 13
0.891719333306281
 23
2.83457249070632E-02
 33
0
  0
SOLID
  8
0
 62
8
 10
0.856108484823892
 20
3.14436183395291E-02
 30
0
 11
0.891719333306281
 21
2.83457249070632E-02
 31
0
 12
0.856108484823892
 22
3.14436183395291E-02
 32
0
 13
0.882429546745658
 23
4.84820322180917E-02
 33
0
  0
SOLID
  8
0
 62
8
 10
0.846818698263269
 20
4.07372986369269E-02
 30
0
 11
0.856108484823892
 21
3.14436183395291E-02
 31
0
 12
0.846818698263269
 22
4.07372986369269E-02
 32
0
 13
0.882429546745658
 23
4.84820322180917E-02
 33
0
  0
SOLID
  8
0
 62
8
 10
0.766307214737867
 20
0.347428748451053
 30
0
 11
0.787983383379321
 21
0.369114002478315
 31
0
 12
0.766307214737867
 22
0.347428748451053
 32
0
 13
0.784886787859114
 23
0.379956629491945
 33
0
  0
SOLID
  8
0
 62
8
 10
0.87933295122545
 20
0.237453531598513
 30
0
 11
0.88707444002597
 21
0.245198265179678
 31
0
 12
0.87933295122545
 22
0.237453531598513
 32
0
 13
0.899460822106801
 23
0.269981412639405
 33
0
  0
SOLID
  8
0
 62
8
 10
0.899460822106801
 20
0.269981412639405
 30
0
 11
0.885526142265866
 21
0.285470879801735
 31
0
 12
0.899460822106801
 22
0.269981412639405
 32
0
 13
0.860753378104204
 23
0.269981412639405
 33
0
  0
SOLID
  8
0
 62
8
 10
0.87933295122545
 20
0.237453531598513
 30
0
 11
0.899460822106801
 21
0.269981412639405
 31
0
 12
0.87933295122545
 22
0.237453531598513
 32
0
 13
0.860753378104204
 23
0.269981412639405
 33
0
  0
SOLID
  8
0
 62
8
 10
0.87933295122545
 20
0.237453531598513
 30
0
 11
0.860753378104204
 21
0.269981412639405
 31
0
 12
0.87933295122545
 22
0.237453531598513
 32
0
 13
0.848366996023373
 23
0.249845105328377
 33
0
  0
SOLID
  8
0
 62
8
 10
0.866946569144619
 20
0.221964064436183
 30
0
 11
0.87933295122545
 21
0.237453531598513
 31
0
 12
0.866946569144619
 22
0.221964064436183
 32
0
 13
0.848366996023373
 23
0.249845105328377
 33
0
  0
SOLID
  8
0
 62
8
 10
0.837528911702646
 20
0.214219330855019
 30
0
 11
0.866946569144619
 21
0.221964064436183
 31
0
 12
0.837528911702646
 22
0.214219330855019
 32
0
 13
0.848366996023373
 23
0.249845105328377
 33
0
  0
SOLID
  8
0
 62
8
 10
0.837528911702646
 20
0.214219330855019
 30
0
 11
0.848366996023373
 21
0.249845105328377
 31
0
 12
0.837528911702646
 22
0.214219330855019
 32
0
 13
0.828239125142022
 23
0.237453531598513
 33
0
  0
SOLID
  8
0
 62
8
 10
0.825142529621814
 20
0.206474597273854
 30
0
 11
0.837528911702646
 21
0.214219330855019
 31
0
 12
0.825142529621814
 22
0.206474597273854
 32
0
 13
0.828239125142022
 23
0.237453531598513
 33
0
  0
SOLID
  8
0
 62
8
 10
0.825142529621814
 20
0.206474597273854
 30
0
 11
0.828239125142022
 21
0.237453531598513
 31
0
 12
0.825142529621814
 22
0.206474597273854
 32
0
 13
0.812756147540983
 23
0.234355638166047
 33
0
  0
SOLID
  8
0
 62
8
 10
0.695085517773089
 20
0.169299876084263
 30
0
 11
0.668764455851323
 21
0.155359355638166
 31
0
 12
0.695085517773089
 22
0.169299876084263
 32
0
 13
0.684247433452362
 23
0.132125154894672
 33
0
  0
SOLID
  8
0
 62
8
 10
0.695085517773089
 20
0.169299876084263
 30
0
 11
0.684247433452362
 21
0.132125154894672
 31
0
 12
0.695085517773089
 22
0.169299876084263
 32
0
 13
0.70747189985392
 23
0.1522614622057
 33
0
  0
SOLID
  8
0
 62
8
 10
0.701278708813504
 20
0.183240396530359
 30
0
 11
0.695085517773089
 21
0.169299876084263
 31
0
 12
0.701278708813504
 22
0.183240396530359
 32
0
 13
0.70747189985392
 23
0.1522614622057
 33
0
  0
SOLID
  8
0
 62
8
 10
0.701278708813504
 20
0.183240396530359
 30
0
 11
0.70747189985392
 21
0.1522614622057
 31
0
 12
0.701278708813504
 22
0.183240396530359
 32
0
 13
0.72759977073527
 23
0.155359355638166
 33
0
  0
SOLID
  8
0
 62
8
 10
0.846818698263269
 20
4.07372986369269E-02
 30
0
 11
0.882429546745658
 21
4.84820322180917E-02
 31
0
 12
0.846818698263269
 22
4.07372986369269E-02
 32
0
 13
0.866946569144619
 23
7.48141263940521E-02
 33
0
  0
SOLID
  8
0
 62
8
 10
0.798821467700049
 20
0.197180916976456
 30
0
 11
0.825142529621814
 21
0.206474597273854
 31
0
 12
0.798821467700049
 22
0.197180916976456
 32
0
 13
0.812756147540983
 23
0.234355638166047
 33
0
  0
SOLID
  8
0
 62
8
 10
0.812756147540983
 20
9.34014869888476E-02
 30
0
 11
0.81120784978088
 21
0.118184634448575
 31
0
 12
0.812756147540983
 22
9.34014869888476E-02
 32
0
 13
0.805014658740464
 23
0.133674101610905
 33
0
  0
SOLID
  8
0
 62
8
 10
0.8
 20
0
 30
0
 11
0.80346636098036
 21
1.90520446096654E-02
 31
0
 12
0.8
 22
0
 32
0
 13
0.805014658740464
 23
4.07372986369269E-02
 33
0
  0
SOLID
  8
0
 62
8
 10
0.832884018422334
 20
5.00309789343247E-02
 30
0
 11
0.846818698263269
 21
4.07372986369269E-02
 31
0
 12
0.832884018422334
 22
5.00309789343247E-02
 32
0
 13
0.866946569144619
 23
7.48141263940521E-02
 33
0
  0
SOLID
  8
0
 62
8
 10
0.832884018422334
 20
5.00309789343247E-02
 30
0
 11
0.866946569144619
 21
7.48141263940521E-02
 31
0
 12
0.832884018422334
 22
5.00309789343247E-02
 32
0
 13
0.839077209462749
 23
8.41078066914498E-02
 33
0
  0
SOLID
  8
0
 62
8
 10
0.81120784978088
 20
5.93246592317224E-02
 30
0
 11
0.832884018422334
 21
5.00309789343247E-02
 31
0
 12
0.81120784978088
 22
5.93246592317224E-02
 32
0
 13
0.839077209462749
 23
8.41078066914498E-02
 33
0
  0
SOLID
  8
0
 62
8
 10
0.81120784978088
 20
5.93246592317224E-02
 30
0
 11
0.839077209462749
 21
8.41078066914498E-02
 31
0
 12
0.81120784978088
 22
5.93246592317224E-02
 32
0
 13
0.812756147540983
 23
9.34014869888476E-02
 33
0
  0
SOLID
  8
0
 62
8
 10
0.798821467700049
 20
0.197180916976456
 30
0
 11
0.812756147540983
 21
0.234355638166047
 31
0
 12
0.798821467700049
 22
0.197180916976456
 32
0
 13
0.777145299058594
 23
0.234355638166047
 33
0
  0
SOLID
  8
0
 62
8
 10
0.798821467700049
 20
0.197180916976456
 30
0
 11
0.777145299058594
 21
0.234355638166047
 31
0
 12
0.798821467700049
 22
0.197180916976456
 32
0
 13
0.764758916977763
 23
0.214219330855019
 33
0
  0
SOLID
  8
0
 62
8
 10
0.772500405778283
 20
0.183240396530359
 30
0
 11
0.798821467700049
 21
0.197180916976456
 31
0
 12
0.772500405778283
 22
0.183240396530359
 32
0
 13
0.764758916977763
 23
0.214219330855019
 33
0
  0
SOLID
  8
0
 62
8
 10
0.772500405778283
 20
0.183240396530359
 30
0
 11
0.764758916977763
 21
0.214219330855019
 31
0
 12
0.772500405778283
 22
0.183240396530359
 32
0
 13
0.741534450576205
 23
0.206474597273854
 33
0
  0
SOLID
  8
0
 62
8
 10
0.764758916977763
 20
0.172397769516729
 30
0
 11
0.772500405778283
 21
0.183240396530359
 31
0
 12
0.764758916977763
 22
0.172397769516729
 32
0
 13
0.741534450576205
 23
0.206474597273854
 33
0
  0
SOLID
  8
0
 62
8
 10
0.724503175215062
 20
0.215768277571252
 30
0
 11
0.710568495374127
 21
0.237453531598513
 31
0
 12
0.724503175215062
 22
0.215768277571252
 32
0
 13
0.698182113293296
 23
0.249845105328377
 33
0
  0
SOLID
  8
0
 62
8
 10
0.784886787859114
 20
0.379956629491945
 30
0
 11
0.758565725937348
 21
0.393897149938042
 31
0
 12
0.784886787859114
 22
0.379956629491945
 32
0
 13
0.739986152816101
 23
0.367565055762082
 33
0
  0
SOLID
  8
0
 62
8
 10
0.766307214737867
 20
0.347428748451053
 30
0
 11
0.784886787859114
 21
0.379956629491945
 31
0
 12
0.766307214737867
 22
0.347428748451053
 32
0
 13
0.739986152816101
 23
0.367565055762082
 33
0
  0
SOLID
  8
0
 62
8
 10
0.741534450576205
 20
0.330390334572491
 30
0
 11
0.766307214737867
 21
0.347428748451053
 31
0
 12
0.741534450576205
 22
0.330390334572491
 32
0
 13
0.739986152816101
 23
0.367565055762082
 33
0
  0
SOLID
  8
0
 62
8
 10
0.741534450576205
 20
0.330390334572491
 30
0
 11
0.739986152816101
 21
0.367565055762082
 31
0
 12
0.741534450576205
 22
0.330390334572491
 32
0
 13
0.712116793134231
 23
0.339684014869888
 33
0
  0
SOLID
  8
0
 62
8
 10
0.726051472975166
 20
0.310254027261462
 30
0
 11
0.741534450576205
 21
0.330390334572491
 31
0
 12
0.726051472975166
 22
0.310254027261462
 32
0
 13
0.712116793134231
 23
0.339684014869888
 33
0
  0
SOLID
  8
0
 62
8
 10
0.726051472975166
 20
0.310254027261462
 30
0
 11
0.712116793134231
 21
0.339684014869888
 31
0
 12
0.726051472975166
 22
0.310254027261462
 32
0
 13
0.67960254017205
 23
0.314900867410161
 33
0
  0
SOLID
  8
0
 62
8
 10
0.691988922252881
 20
0.294764560099133
 30
0
 11
0.726051472975166
 21
0.310254027261462
 31
0
 12
0.691988922252881
 22
0.294764560099133
 32
0
 13
0.67960254017205
 23
0.314900867410161
 33
0
  0
SOLID
  8
0
 62
8
 10
0.691988922252881
 20
0.294764560099133
 30
0
 11
0.67960254017205
 21
0.314900867410161
 31
0
 12
0.691988922252881
 22
0.294764560099133
 32
0
 13
0.667216158091219
 23
0.291666666666667
 33
0
  0
SOLID
  8
0
 62
8
 10
0.695085517773089
 20
0.271530359355638
 30
0
 11
0.691988922252881
 21
0.294764560099133
 31
0
 12
0.695085517773089
 22
0.271530359355638
 32
0
 13
0.667216158091219
 23
0.291666666666667
 33
0
  0
SOLID
  8
0
 62
8
 10
0.695085517773089
 20
0.271530359355638
 30
0
 11
0.667216158091219
 21
0.291666666666667
 31
0
 12
0.695085517773089
 22
0.271530359355638
 32
0
 13
0.662571264810907
 23
0.25139405204461
 33
0
  0
SOLID
  8
0
 62
8
 10
0.698182113293296
 20
0.249845105328377
 30
0
 11
0.695085517773089
 21
0.271530359355638
 31
0
 12
0.698182113293296
 22
0.249845105328377
 32
0
 13
0.662571264810907
 23
0.25139405204461
 33
0
  0
SOLID
  8
0
 62
8
 10
0.698182113293296
 20
0.249845105328377
 30
0
 11
0.662571264810907
 21
0.25139405204461
 31
0
 12
0.698182113293296
 22
0.249845105328377
 32
0
 13
0.673409349131634
 23
0.226610904584882
 33
0
  0
SOLID
  8
0
 62
8
 10
0.774048703538387
 20
4.22862453531599E-02
 30
0
 11
0.76
 21
0
 31
0
 12
0.774048703538387
 22
4.22862453531599E-02
 32
0
 13
0.8
 23
0
 33
0
  0
SOLID
  8
0
 62
8
 10
0.774048703538387
 20
4.22862453531599E-02
 30
0
 11
0.8
 21
0
 31
0
 12
0.774048703538387
 22
4.22862453531599E-02
 32
0
 13
0.805014658740464
 23
4.07372986369269E-02
 33
0
  0
SOLID
  8
0
 62
8
 10
0.774048703538387
 20
4.22862453531599E-02
 30
0
 11
0.805014658740464
 21
4.07372986369269E-02
 31
0
 12
0.774048703538387
 22
4.22862453531599E-02
 32
0
 13
0.81120784978088
 23
5.93246592317224E-02
 33
0
  0
SOLID
  8
0
 62
8
 10
0.778693596818698
 20
0.077912019826518
 30
0
 11
0.774048703538387
 21
4.22862453531599E-02
 31
0
 12
0.778693596818698
 22
0.077912019826518
 32
0
 13
0.81120784978088
 23
5.93246592317224E-02
 33
0
  0
SOLID
  8
0
 62
8
 10
0.778693596818698
 20
0.077912019826518
 30
0
 11
0.81120784978088
 21
5.93246592317224E-02
 31
0
 12
0.778693596818698
 22
0.077912019826518
 32
0
 13
0.812756147540983
 23
9.34014869888476E-02
 33
0
  0
SOLID
  8
0
 62
8
 10
0.77559700129849
 20
0.11043990086741
 30
0
 11
0.778693596818698
 21
0.077912019826518
 31
0
 12
0.77559700129849
 22
0.11043990086741
 32
0
 13
0.812756147540983
 23
9.34014869888476E-02
 33
0
  0
SOLID
  8
0
 62
8
 10
0.77559700129849
 20
0.11043990086741
 30
0
 11
0.812756147540983
 21
9.34014869888476E-02
 31
0
 12
0.77559700129849
 22
0.11043990086741
 32
0
 13
0.805014658740464
 23
0.133674101610905
 33
0
  0
SOLID
  8
0
 62
8
 10
0.77559700129849
 20
0.11043990086741
 30
0
 11
0.805014658740464
 21
0.133674101610905
 31
0
 12
0.77559700129849
 22
0.11043990086741
 32
0
 13
0.787983383379321
 23
0.158457249070632
 33
0
  0
SOLID
  8
0
 62
8
 10
0.750824237136828
 20
0.142967781908302
 30
0
 11
0.77559700129849
 21
0.11043990086741
 31
0
 12
0.750824237136828
 22
0.142967781908302
 32
0
 13
0.787983383379321
 23
0.158457249070632
 33
0
  0
SOLID
  8
0
 62
8
 10
0.750824237136828
 20
0.142967781908302
 30
0
 11
0.787983383379321
 21
0.158457249070632
 31
0
 12
0.750824237136828
 22
0.142967781908302
 32
0
 13
0.764758916977763
 23
0.172397769516729
 33
0
  0
SOLID
  8
0
 62
8
 10
0.72759977073527
 20
0.155359355638166
 30
0
 11
0.750824237136828
 21
0.142967781908302
 31
0
 12
0.72759977073527
 22
0.155359355638166
 32
0
 13
0.764758916977763
 23
0.172397769516729
 33
0
  0
SOLID
  8
0
 62
8
 10
0.724503175215062
 20
0.215768277571252
 30
0
 11
0.698182113293296
 21
0.249845105328377
 31
0
 12
0.724503175215062
 22
0.215768277571252
 32
0
 13
0.673409349131634
 23
0.226610904584882
 33
0
  0
SOLID
  8
0
 62
8
 10
0.724503175215062
 20
0.215768277571252
 30
0
 11
0.673409349131634
 21
0.226610904584882
 31
0
 12
0.724503175215062
 22
0.215768277571252
 32
0
 13
0.701278708813504
 23
0.183240396530359
 33
0
  0
SOLID
  8
0
 62
8
 10
0.741534450576205
 20
0.206474597273854
 30
0
 11
0.724503175215062
 21
0.215768277571252
 31
0
 12
0.741534450576205
 22
0.206474597273854
 32
0
 13
0.701278708813504
 23
0.183240396530359
 33
0
  0
SOLID
  8
0
 62
8
 10
0.72759977073527
 20
0.155359355638166
 30
0
 11
0.764758916977763
 21
0.172397769516729
 31
0
 12
0.72759977073527
 22
0.155359355638166
 32
0
 13
0.741534450576205
 23
0.206474597273854
 33
0
  0
SOLID
  8
0
 62
8
 10
0.72759977073527
 20
0.155359355638166
 30
0
 11
0.741534450576205
 21
0.206474597273854
 31
0
 12
0.72759977073527
 22
0.155359355638166
 32
0
 13
0.701278708813504
 23
0.183240396530359
 33
0
  0
SOLID
  8
0
 62
8
 10
0.730822378197007
 20
0.068382708420324
 30
0
 11
0.721527517330014
 21
6.68329156318871E-02
 31
0
 12
0.730822378197007
 22
0.068382708420324
 32
0
 13
0.715330943418685
 23
6.21835372665764E-02
 33
0
  0
SOLID
  8
0
 62
8
 10
0.696741221684697
 20
2.96378887094015E-02
 30
0
 11
0.693642934729033
 21
1.56897536134695E-02
 31
0
 12
0.696741221684697
 22
2.96378887094015E-02
 32
0
 13
0.699839508640362
 23
1.25901680365957E-02
 33
0
  0
SOLID
  8
0
 62
8
 10
0.749412099930994
 20
6.21835372665764E-02
 30
0
 11
0.743215526019665
 21
0.068382708420324
 31
0
 12
0.749412099930994
 22
6.21835372665764E-02
 32
0
 13
0.730822378197007
 23
0.068382708420324
 33
0
  0
SOLID
  8
0
 62
8
 10
0.724625804285678
 20
9.49058245972186E-03
 30
0
 11
0.737018952108336
 21
1.10403752481588E-02
 31
0
 12
0.724625804285678
 22
9.49058245972186E-03
 32
0
 13
0.740117239064001
 23
0.021888924767217
 33
0
  0
SOLID
  8
0
 62
8
 10
0.706036082551691
 20
5.13349877475181E-02
 30
0
 11
0.699839508640362
 21
4.20362310168967E-02
 31
0
 12
0.706036082551691
 22
5.13349877475181E-02
 32
0
 13
0.696741221684697
 23
2.96378887094015E-02
 33
0
  0
SOLID
  8
0
 62
8
 10
0.696741221684697
 20
2.96378887094015E-02
 30
0
 11
0.699839508640362
 21
1.25901680365957E-02
 31
0
 12
0.696741221684697
 22
2.96378887094015E-02
 32
0
 13
0.710683512985188
 23
9.49058245972186E-03
 33
0
  0
SOLID
  8
0
 62
8
 10
0.749412099930994
 20
4.66856093822074E-02
 30
0
 11
0.749412099930994
 21
6.21835372665764E-02
 31
0
 12
0.749412099930994
 22
4.66856093822074E-02
 32
0
 13
0.730822378197007
 23
0.068382708420324
 33
0
  0
SOLID
  8
0
 62
8
 10
0.730822378197007
 20
0.068382708420324
 30
0
 11
0.715330943418685
 21
6.21835372665764E-02
 31
0
 12
0.730822378197007
 22
0.068382708420324
 32
0
 13
0.706036082551691
 23
5.13349877475181E-02
 33
0
  0
SOLID
  8
0
 62
8
 10
0.710683512985188
 20
9.49058245972186E-03
 30
0
 11
0.724625804285678
 21
9.49058245972186E-03
 31
0
 12
0.710683512985188
 22
9.49058245972186E-03
 32
0
 13
0.740117239064001
 23
0.021888924767217
 33
0
  0
SOLID
  8
0
 62
8
 10
0.706036082551691
 20
5.13349877475181E-02
 30
0
 11
0.696741221684697
 21
2.96378887094015E-02
 31
0
 12
0.706036082551691
 22
5.13349877475181E-02
 32
0
 13
0.710683512985188
 23
9.49058245972186E-03
 33
0
  0
SOLID
  8
0
 62
8
 10
0.749412099930994
 20
4.66856093822074E-02
 30
0
 11
0.730822378197007
 21
0.068382708420324
 31
0
 12
0.749412099930994
 22
4.66856093822074E-02
 32
0
 13
0.706036082551691
 23
5.13349877475181E-02
 33
0
  0
SOLID
  8
0
 62
8
 10
0.706036082551691
 20
5.13349877475181E-02
 30
0
 11
0.710683512985188
 21
9.49058245972186E-03
 31
0
 12
0.706036082551691
 22
5.13349877475181E-02
 32
0
 13
0.740117239064001
 23
0.021888924767217
 33
0
  0
SOLID
  8
0
 62
8
 10
0.706036082551691
 20
5.13349877475181E-02
 30
0
 11
0.740117239064001
 21
0.021888924767217
 31
0
 12
0.706036082551691
 22
5.13349877475181E-02
 32
0
 13
0.749412099930994
 23
4.66856093822074E-02
 33
0
  0
SOLID
  8
0
 62
8
 10
0.493806808959584
 20
3.14436183395291E-02
 30
0
 11
0.5
 21
2.83457249070632E-02
 31
0
 12
0.493806808959584
 22
3.14436183395291E-02
 32
0
 13
0.506193191040415
 23
2.83457249070632E-02
 33
0
  0
SOLID
  8
0
 62
8
 10
0.724503175215062
 20
9.49504337050806E-02
 30
0
 11
0.733792961775686
 21
0.102695167286245
 31
0
 12
0.724503175215062
 22
9.49504337050806E-02
 32
0
 13
0.733792961775686
 23
0.104244114002478
 33
0
  0
SOLID
  8
0
 62
8
 10
0.489161915679273
 20
0.036090458488228
 30
0
 11
0.493806808959584
 21
3.14436183395291E-02
 31
0
 12
0.489161915679273
 22
0.036090458488228
 32
0
 13
0.506193191040415
 23
2.83457249070632E-02
 33
0
  0
SOLID
  8
0
 62
8
 10
0.473678938078234
 20
9.49504337050806E-02
 30
0
 11
0.479872129118649
 21
0.107342007434944
 31
0
 12
0.473678938078234
 22
9.49504337050806E-02
 32
0
 13
0.478323831358546
 23
0.113537794299876
 33
0
  0
SOLID
  8
0
 62
8
 10
0.650184882730076
 20
1.28562577447336E-02
 30
0
 11
0.657926371530596
 21
1.75030978934325E-02
 31
0
 12
0.650184882730076
 22
1.28562577447336E-02
 32
0
 13
0.657926371530596
 23
3.14436183395291E-02
 33
0
  0
SOLID
  8
0
 62
8
 10
0.659474669290699
 20
9.18525402726146E-02
 30
0
 11
0.65173318049018
 21
8.56567534076828E-02
 31
0
 12
0.659474669290699
 22
9.18525402726146E-02
 32
0
 13
0.643991691689661
 23
7.48141263940521E-02
 33
0
  0
SOLID
  8
0
 62
8
 10
0.459744258237299
 20
4.53841387856258E-02
 30
0
 11
0.473678938078234
 21
0.036090458488228
 31
0
 12
0.459744258237299
 22
4.53841387856258E-02
 32
0
 13
0.482968724638857
 23
0.036090458488228
 33
0
  0
SOLID
  8
0
 62
8
 10
0.473678938078234
 20
0.139869888475836
 30
0
 11
0.456647662717091
 21
0.149163568773234
 31
0
 12
0.473678938078234
 22
0.139869888475836
 32
0
 13
0.447357876156468
 23
0.142967781908302
 33
0
  0
SOLID
  8
0
 62
8
 10
0.489161915679273
 20
0.036090458488228
 30
0
 11
0.506193191040415
 21
2.83457249070632E-02
 31
0
 12
0.489161915679273
 22
0.036090458488228
 32
0
 13
0.515482977601039
 23
2.83457249070632E-02
 33
0
  0
SOLID
  8
0
 62
8
 10
0.571221696964778
 20
4.07372986369269E-02
 30
0
 11
0.561931910404155
 21
4.53841387856258E-02
 31
0
 12
0.571221696964778
 22
4.07372986369269E-02
 32
0
 13
0.544900635043012
 23
5.00309789343247E-02
 33
0
  0
SOLID
  8
0
 62
8
 10
0.637798500649245
 20
6.08736059479554E-02
 30
0
 11
0.633153607368933
 21
4.84820322180917E-02
 31
0
 12
0.637798500649245
 22
6.08736059479554E-02
 32
0
 13
0.628508714088622
 23
0.034541511771995
 33
0
  0
SOLID
  8
0
 62
8
 10
0.733792961775686
 20
0.104244114002478
 30
0
 11
0.722954877454958
 21
0.127478314745973
 31
0
 12
0.733792961775686
 22
0.104244114002478
 32
0
 13
0.715213388654439
 23
0.12592936802974
 33
0
  0
SOLID
  8
0
 62
8
 10
0.70747189985392
 20
9.18525402726146E-02
 30
0
 11
0.724503175215062
 21
9.49504337050806E-02
 31
0
 12
0.70747189985392
 22
9.18525402726146E-02
 32
0
 13
0.733792961775686
 23
0.104244114002478
 33
0
  0
SOLID
  8
0
 62
8
 10
0.515482977601039
 20
2.83457249070632E-02
 30
0
 11
0.530965955202077
 21
1.90520446096654E-02
 31
0
 12
0.515482977601039
 22
2.83457249070632E-02
 32
0
 13
0.541804039522805
 23
1.59541511771995E-02
 33
0
  0
SOLID
  8
0
 62
8
 10
0.67960254017205
 20
5.15799256505576E-02
 30
0
 11
0.691988922252881
 21
6.39714993804213E-02
 31
0
 12
0.67960254017205
 22
5.15799256505576E-02
 32
0
 13
0.695085517773089
 23
0.076363073110285
 33
0
  0
SOLID
  8
0
 62
8
 10
0.657926371530596
 20
3.14436183395291E-02
 30
0
 11
0.661022967050803
 21
3.29925650557621E-02
 31
0
 12
0.657926371530596
 22
3.14436183395291E-02
 32
0
 13
0.67960254017205
 23
5.15799256505576E-02
 33
0
  0
SOLID
  8
0
 62
8
 10
0.459744258237299
 20
4.53841387856258E-02
 30
0
 11
0.482968724638857
 21
0.036090458488228
 31
0
 12
0.459744258237299
 22
4.53841387856258E-02
 32
0
 13
0.489161915679273
 23
0.036090458488228
 33
0
  0
SOLID
  8
0
 62
8
 10
0.438068089595845
 20
9.18525402726146E-02
 30
0
 11
0.438068089595845
 21
7.17162329615861E-02
 31
0
 12
0.438068089595845
 22
9.18525402726146E-02
 32
0
 13
0.44426128063626
 23
6.08736059479554E-02
 33
0
  0
SOLID
  8
0
 62
8
 10
0.715213388654439
 20
0.12592936802974
 30
0
 11
0.698182113293296
 21
0.12592936802974
 31
0
 12
0.715213388654439
 22
0.12592936802974
 32
0
 13
0.687344028972569
 23
0.11043990086741
 33
0
  0
SOLID
  8
0
 62
8
 10
0.447357876156468
 20
0.142967781908302
 30
0
 11
0.439616387355949
 21
0.121282527881041
 31
0
 12
0.447357876156468
 22
0.142967781908302
 32
0
 13
0.439616387355949
 23
0.111988847583643
 33
0
  0
SOLID
  8
0
 62
8
 10
0.687344028972569
 20
0.11043990086741
 30
0
 11
0.674957646891738
 21
0.104244114002478
 31
0
 12
0.687344028972569
 22
0.11043990086741
 32
0
 13
0.659474669290699
 23
9.18525402726146E-02
 33
0
  0
SOLID
  8
0
 62
8
 10
0.544900635043012
 20
5.00309789343247E-02
 30
0
 11
0.524772764161662
 21
5.93246592317224E-02
 31
0
 12
0.544900635043012
 22
5.00309789343247E-02
 32
0
 13
0.513934679840935
 23
6.39714993804213E-02
 33
0
  0
SOLID
  8
0
 62
8
 10
0.70747189985392
 20
9.18525402726146E-02
 30
0
 11
0.733792961775686
 21
0.104244114002478
 31
0
 12
0.70747189985392
 22
9.18525402726146E-02
 32
0
 13
0.715213388654439
 23
0.12592936802974
 33
0
  0
SOLID
  8
0
 62
8
 10
0.70747189985392
 20
9.18525402726146E-02
 30
0
 11
0.715213388654439
 21
0.12592936802974
 31
0
 12
0.70747189985392
 22
9.18525402726146E-02
 32
0
 13
0.687344028972569
 23
0.11043990086741
 33
0
  0
SOLID
  8
0
 62
8
 10
0.701278708813504
 20
8.72057001239158E-02
 30
0
 11
0.70747189985392
 21
9.18525402726146E-02
 31
0
 12
0.701278708813504
 22
8.72057001239158E-02
 32
0
 13
0.687344028972569
 23
0.11043990086741
 33
0
  0
SOLID
  8
0
 62
8
 10
0.695085517773089
 20
0.076363073110285
 30
0
 11
0.701278708813504
 21
8.72057001239158E-02
 31
0
 12
0.695085517773089
 22
0.076363073110285
 32
0
 13
0.687344028972569
 23
0.11043990086741
 33
0
  0
SOLID
  8
0
 62
8
 10
0.659474669290699
 20
9.18525402726146E-02
 30
0
 11
0.643991691689661
 21
7.48141263940521E-02
 31
0
 12
0.659474669290699
 22
9.18525402726146E-02
 32
0
 13
0.637798500649245
 23
6.08736059479554E-02
 33
0
  0
SOLID
  8
0
 62
8
 10
0.695085517773089
 20
0.076363073110285
 30
0
 11
0.687344028972569
 21
0.11043990086741
 31
0
 12
0.695085517773089
 22
0.076363073110285
 32
0
 13
0.659474669290699
 23
9.18525402726146E-02
 33
0
  0
SOLID
  8
0
 62
8
 10
0.541804039522805
 20
1.59541511771995E-02
 30
0
 11
0.560383612644051
 21
6.66047087980174E-03
 31
0
 12
0.541804039522805
 22
1.59541511771995E-02
 32
0
 13
0.580511483525402
 23
3.56257744733582E-03
 33
0
  0
SOLID
  8
0
 62
8
 10
0.626960416328518
 20
5.11152416356878E-03
 30
0
 11
0.650184882730076
 21
1.28562577447336E-02
 31
0
 12
0.626960416328518
 22
5.11152416356878E-03
 32
0
 13
0.657926371530596
 23
3.14436183395291E-02
 33
0
  0
SOLID
  8
0
 62
8
 10
0.478323831358546
 20
0.113537794299876
 30
0
 11
0.473678938078234
 21
0.139869888475836
 31
0
 12
0.478323831358546
 22
0.113537794299876
 32
0
 13
0.447357876156468
 23
0.142967781908302
 33
0
  0
SOLID
  8
0
 62
8
 10
0.478323831358546
 20
0.113537794299876
 30
0
 11
0.447357876156468
 21
0.142967781908302
 31
0
 12
0.478323831358546
 22
0.113537794299876
 32
0
 13
0.439616387355949
 23
0.111988847583643
 33
0
  0
SOLID
  8
0
 62
8
 10
0.473678938078234
 20
9.49504337050806E-02
 30
0
 11
0.478323831358546
 21
0.113537794299876
 31
0
 12
0.473678938078234
 22
9.49504337050806E-02
 32
0
 13
0.439616387355949
 23
0.111988847583643
 33
0
  0
SOLID
  8
0
 62
8
 10
0.473678938078234
 20
9.49504337050806E-02
 30
0
 11
0.439616387355949
 21
0.111988847583643
 31
0
 12
0.473678938078234
 22
9.49504337050806E-02
 32
0
 13
0.438068089595845
 23
9.18525402726146E-02
 33
0
  0
SOLID
  8
0
 62
8
 10
0.473678938078234
 20
8.72057001239158E-02
 30
0
 11
0.473678938078234
 21
9.49504337050806E-02
 31
0
 12
0.473678938078234
 22
8.72057001239158E-02
 32
0
 13
0.438068089595845
 23
9.18525402726146E-02
 33
0
  0
SOLID
  8
0
 62
8
 10
0.473678938078234
 20
8.72057001239158E-02
 30
0
 11
0.438068089595845
 21
9.18525402726146E-02
 31
0
 12
0.473678938078234
 22
8.72057001239158E-02
 32
0
 13
0.44426128063626
 23
6.08736059479554E-02
 33
0
  0
SOLID
  8
0
 62
8
 10
0.481420426878753
 20
7.48141263940521E-02
 30
0
 11
0.473678938078234
 21
8.72057001239158E-02
 31
0
 12
0.481420426878753
 22
7.48141263940521E-02
 32
0
 13
0.44426128063626
 23
6.08736059479554E-02
 33
0
  0
SOLID
  8
0
 62
8
 10
0.481420426878753
 20
7.48141263940521E-02
 30
0
 11
0.44426128063626
 21
6.08736059479554E-02
 31
0
 12
0.481420426878753
 22
7.48141263940521E-02
 32
0
 13
0.459744258237299
 23
4.53841387856258E-02
 33
0
  0
SOLID
  8
0
 62
8
 10
0.481420426878753
 20
7.48141263940521E-02
 30
0
 11
0.459744258237299
 21
4.53841387856258E-02
 31
0
 12
0.481420426878753
 22
7.48141263940521E-02
 32
0
 13
0.489161915679273
 23
0.036090458488228
 33
0
  0
SOLID
  8
0
 62
8
 10
0.490710213439377
 20
7.01672862453532E-02
 30
0
 11
0.481420426878753
 21
7.48141263940521E-02
 31
0
 12
0.490710213439377
 22
7.01672862453532E-02
 32
0
 13
0.489161915679273
 23
0.036090458488228
 33
0
  0
SOLID
  8
0
 62
8
 10
0.513934679840935
 20
6.39714993804213E-02
 30
0
 11
0.490710213439377
 21
7.01672862453532E-02
 31
0
 12
0.513934679840935
 22
6.39714993804213E-02
 32
0
 13
0.489161915679273
 23
0.036090458488228
 33
0
  0
SOLID
  8
0
 62
8
 10
0.513934679840935
 20
6.39714993804213E-02
 30
0
 11
0.489161915679273
 21
0.036090458488228
 31
0
 12
0.513934679840935
 22
6.39714993804213E-02
 32
0
 13
0.515482977601039
 23
2.83457249070632E-02
 33
0
  0
SOLID
  8
0
 62
8
 10
0.544900635043012
 20
5.00309789343247E-02
 30
0
 11
0.513934679840935
 21
6.39714993804213E-02
 31
0
 12
0.544900635043012
 22
5.00309789343247E-02
 32
0
 13
0.515482977601039
 23
2.83457249070632E-02
 33
0
  0
SOLID
  8
0
 62
8
 10
0.544900635043012
 20
5.00309789343247E-02
 30
0
 11
0.515482977601039
 21
2.83457249070632E-02
 31
0
 12
0.544900635043012
 22
5.00309789343247E-02
 32
0
 13
0.541804039522805
 23
1.59541511771995E-02
 33
0
  0
SOLID
  8
0
 62
8
 10
0.571221696964778
 20
4.07372986369269E-02
 30
0
 11
0.544900635043012
 21
5.00309789343247E-02
 31
0
 12
0.571221696964778
 22
4.07372986369269E-02
 32
0
 13
0.541804039522805
 23
1.59541511771995E-02
 33
0
  0
SOLID
  8
0
 62
8
 10
0.571221696964778
 20
4.07372986369269E-02
 30
0
 11
0.541804039522805
 21
1.59541511771995E-02
 31
0
 12
0.571221696964778
 22
4.07372986369269E-02
 32
0
 13
0.580511483525402
 23
3.56257744733582E-03
 33
0
  0
SOLID
  8
0
 62
8
 10
0.582059781285506
 20
0.037639405204461
 30
0
 11
0.571221696964778
 21
4.07372986369269E-02
 31
0
 12
0.582059781285506
 22
0.037639405204461
 32
0
 13
0.580511483525402
 23
3.56257744733582E-03
 33
0
  0
SOLID
  8
0
 62
8
 10
0.592897865606233
 20
0.034541511771995
 30
0
 11
0.582059781285506
 21
0.037639405204461
 31
0
 12
0.592897865606233
 22
0.034541511771995
 32
0
 13
0.580511483525402
 23
3.56257744733582E-03
 33
0
  0
SOLID
  8
0
 62
8
 10
0.609929140967375
 20
3.14436183395291E-02
 30
0
 11
0.592897865606233
 21
0.034541511771995
 31
0
 12
0.609929140967375
 22
3.14436183395291E-02
 32
0
 13
0.580511483525402
 23
3.56257744733582E-03
 33
0
  0
SOLID
  8
0
 62
8
 10
0.609929140967375
 20
3.14436183395291E-02
 30
0
 11
0.580511483525402
 21
3.56257744733582E-03
 31
0
 12
0.609929140967375
 22
3.14436183395291E-02
 32
0
 13
0.626960416328518
 23
5.11152416356878E-03
 33
0
  0
SOLID
  8
0
 62
8
 10
0.628508714088622
 20
0.034541511771995
 30
0
 11
0.609929140967375
 21
3.14436183395291E-02
 31
0
 12
0.628508714088622
 22
0.034541511771995
 32
0
 13
0.626960416328518
 23
5.11152416356878E-03
 33
0
  0
SOLID
  8
0
 62
8
 10
0.628508714088622
 20
0.034541511771995
 30
0
 11
0.626960416328518
 21
5.11152416356878E-03
 31
0
 12
0.628508714088622
 22
0.034541511771995
 32
0
 13
0.657926371530596
 23
3.14436183395291E-02
 33
0
  0
SOLID
  8
0
 62
8
 10
0.637798500649245
 20
6.08736059479554E-02
 30
0
 11
0.628508714088622
 21
0.034541511771995
 31
0
 12
0.637798500649245
 22
6.08736059479554E-02
 32
0
 13
0.657926371530596
 23
3.14436183395291E-02
 33
0
  0
SOLID
  8
0
 62
8
 10
0.637798500649245
 20
6.08736059479554E-02
 30
0
 11
0.657926371530596
 21
3.14436183395291E-02
 31
0
 12
0.637798500649245
 22
6.08736059479554E-02
 32
0
 13
0.67960254017205
 23
5.15799256505576E-02
 33
0
  0
SOLID
  8
0
 62
8
 10
0.67960254017205
 20
5.15799256505576E-02
 30
0
 11
0.695085517773089
 21
0.076363073110285
 31
0
 12
0.67960254017205
 22
5.15799256505576E-02
 32
0
 13
0.659474669290699
 23
9.18525402726146E-02
 33
0
  0
SOLID
  8
0
 62
8
 10
0.637798500649245
 20
6.08736059479554E-02
 30
0
 11
0.67960254017205
 21
5.15799256505576E-02
 31
0
 12
0.637798500649245
 22
6.08736059479554E-02
 32
0
 13
0.659474669290699
 23
9.18525402726146E-02
 33
0
  0
SOLID
  8
0
 62
8
 10
0.571260599980284
 20
0.22026240168714
 30
0
 11
0.563514882591123
 21
0.224911780052451
 31
0
 12
0.571260599980284
 22
0.22026240168714
 32
0
 13
0.551121734768465
 23
0.223361987264014
 33
0
  0
SOLID
  8
0
 62
8
 10
0.558867452157626
 20
7.14822939971978E-02
 30
0
 11
0.566613169546787
 21
6.99325012087609E-02
 31
0
 12
0.558867452157626
 22
7.14822939971978E-02
 32
0
 13
0.577457173891613
 23
8.07810507278192E-02
 33
0
  0
SOLID
  8
0
 62
8
 10
0.554220021724129
 20
0.138123383899984
 30
0
 11
0.561965739113291
 21
0.147422140630606
 31
0
 12
0.554220021724129
 22
0.138123383899984
 32
0
 13
0.566613169546787
 23
0.15517110457279
 33
0
  0
SOLID
  8
0
 62
8
 10
0.572809743458116
 20
0.141222969476858
 30
0
 11
0.577457173891613
 21
0.119525870438742
 31
0
 12
0.572809743458116
 22
0.141222969476858
 32
0
 13
0.579006317369445
 23
0.117976077650305
 33
0
  0
SOLID
  8
0
 62
8
 10
0.594497752147768
 20
9.16296002468774E-02
 30
0
 11
0.603792613014762
 21
8.07810507278192E-02
 31
0
 12
0.594497752147768
 22
9.16296002468774E-02
 32
0
 13
0.617734904315252
 23
0.102478149765936
 33
0
  0
SOLID
  8
0
 62
8
 10
0.526335439123148
 20
0.164469861303412
 30
0
 11
0.515491434778323
 21
0.159820482938101
 31
0
 12
0.526335439123148
 22
0.164469861303412
 32
0
 13
0.503098286955665
 23
0.152071518995916
 33
0
  0
SOLID
  8
0
 62
8
 10
0.509294860866993
 20
0.111776906496557
 30
0
 11
0.510844004344826
 21
9.93785641890619E-02
 31
0
 12
0.509294860866993
 22
0.111776906496557
 32
0
 13
0.524786295645316
 23
9.00798074584405E-02
 33
0
  0
SOLID
  8
0
 62
8
 10
0.558867452157626
 20
7.14822939971978E-02
 30
0
 11
0.577457173891613
 21
8.07810507278192E-02
 31
0
 12
0.558867452157626
 22
7.14822939971978E-02
 32
0
 13
0.577457173891613
 23
9.47291858237512E-02
 33
0
  0
SOLID
  8
0
 62
8
 10
0.579006317369445
 20
0.117976077650305
 30
0
 11
0.583653747802942
 21
0.108677320919683
 31
0
 12
0.579006317369445
 22
0.117976077650305
 32
0
 13
0.594497752147768
 23
9.16296002468774E-02
 33
0
  0
SOLID
  8
0
 62
8
 10
0.571260599980284
 20
0.22026240168714
 30
0
 11
0.551121734768465
 21
0.223361987264014
 31
0
 12
0.571260599980284
 22
0.22026240168714
 32
0
 13
0.541826873901471
 23
0.210963644956519
 33
0
  0
SOLID
  8
0
 62
8
 10
0.577457173891613
 20
9.47291858237512E-02
 30
0
 11
0.565064026068955
 21
0.108677320919683
 31
0
 12
0.577457173891613
 22
9.47291858237512E-02
 32
0
 13
0.554220021724129
 23
0.116426284861868
 33
0
  0
SOLID
  8
0
 62
8
 10
0.594497752147768
 20
9.16296002468774E-02
 30
0
 11
0.617734904315252
 21
0.102478149765936
 31
0
 12
0.594497752147768
 22
9.16296002468774E-02
 32
0
 13
0.605341756492594
 23
0.124175248804052
 33
0
  0
SOLID
  8
0
 62
8
 10
0.579006317369445
 20
0.117976077650305
 30
0
 11
0.594497752147768
 21
9.16296002468774E-02
 31
0
 12
0.579006317369445
 22
0.117976077650305
 32
0
 13
0.605341756492594
 23
0.124175248804052
 33
0
  0
SOLID
  8
0
 62
8
 10
0.579006317369445
 20
0.117976077650305
 30
0
 11
0.605341756492594
 21
0.124175248804052
 31
0
 12
0.579006317369445
 22
0.117976077650305
 32
0
 13
0.602243469536929
 23
0.144322555053732
 33
0
  0
SOLID
  8
0
 62
8
 10
0.572809743458116
 20
0.141222969476858
 30
0
 11
0.579006317369445
 21
0.117976077650305
 31
0
 12
0.572809743458116
 22
0.141222969476858
 32
0
 13
0.602243469536929
 23
0.144322555053732
 33
0
  0
SOLID
  8
0
 62
8
 10
0.571260599980284
 20
0.159820482938101
 30
0
 11
0.572809743458116
 21
0.141222969476858
 31
0
 12
0.571260599980284
 22
0.159820482938101
 32
0
 13
0.602243469536929
 23
0.144322555053732
 33
0
  0
SOLID
  8
0
 62
8
 10
0.571260599980284
 20
0.159820482938101
 30
0
 11
0.602243469536929
 21
0.144322555053732
 31
0
 12
0.571260599980284
 22
0.159820482938101
 32
0
 13
0.602243469536929
 23
0.159820482938101
 33
0
  0
SOLID
  8
0
 62
8
 10
0.571260599980284
 20
0.159820482938101
 30
0
 11
0.602243469536929
 21
0.159820482938101
 31
0
 12
0.571260599980284
 22
0.159820482938101
 32
0
 13
0.5960468956256
 23
0.184617167553091
 33
0
  0
SOLID
  8
0
 62
8
 10
0.526335439123148
 20
0.164469861303412
 30
0
 11
0.503098286955665
 21
0.152071518995916
 31
0
 12
0.526335439123148
 22
0.164469861303412
 32
0
 13
0.503098286955665
 23
0.135023798323111
 33
0
  0
SOLID
  8
0
 62
8
 10
0.541826873901471
 20
8.07810507278192E-02
 30
0
 11
0.558867452157626
 21
7.14822939971978E-02
 31
0
 12
0.541826873901471
 22
8.07810507278192E-02
 32
0
 13
0.577457173891613
 23
9.47291858237512E-02
 33
0
  0
SOLID
  8
0
 62
8
 10
0.541826873901471
 20
8.07810507278192E-02
 30
0
 11
0.577457173891613
 21
9.47291858237512E-02
 31
0
 12
0.541826873901471
 22
8.07810507278192E-02
 32
0
 13
0.554220021724129
 23
0.116426284861868
 33
0
  0
SOLID
  8
0
 62
8
 10
0.524786295645316
 20
9.00798074584405E-02
 30
0
 11
0.541826873901471
 21
8.07810507278192E-02
 31
0
 12
0.524786295645316
 22
9.00798074584405E-02
 32
0
 13
0.554220021724129
 23
0.116426284861868
 33
0
  0
SOLID
  8
0
 62
8
 10
0.583653747802942
 20
0.203214681014334
 30
0
 11
0.571260599980284
 21
0.22026240168714
 31
0
 12
0.583653747802942
 22
0.203214681014334
 32
0
 13
0.541826873901471
 23
0.210963644956519
 33
0
  0
SOLID
  8
0
 62
8
 10
0.524786295645316
 20
9.00798074584405E-02
 30
0
 11
0.554220021724129
 21
0.116426284861868
 31
0
 12
0.524786295645316
 22
9.00798074584405E-02
 32
0
 13
0.5480234478128
 23
0.125725041592489
 33
0
  0
SOLID
  8
0
 62
8
 10
0.509294860866993
 20
0.111776906496557
 30
0
 11
0.524786295645316
 21
9.00798074584405E-02
 31
0
 12
0.509294860866993
 22
0.111776906496557
 32
0
 13
0.5480234478128
 23
0.125725041592489
 33
0
  0
SOLID
  8
0
 62
8
 10
0.583653747802942
 20
0.203214681014334
 30
0
 11
0.541826873901471
 21
0.210963644956519
 31
0
 12
0.583653747802942
 22
0.203214681014334
 32
0
 13
0.541826873901471
 23
0.189266545918402
 33
0
  0
SOLID
  8
0
 62
8
 10
0.571260599980284
 20
0.159820482938101
 30
0
 11
0.5960468956256
 21
0.184617167553091
 31
0
 12
0.571260599980284
 22
0.159820482938101
 32
0
 13
0.583653747802942
 23
0.203214681014334
 33
0
  0
SOLID
  8
0
 62
8
 10
0.571260599980284
 20
0.159820482938101
 30
0
 11
0.583653747802942
 21
0.203214681014334
 31
0
 12
0.571260599980284
 22
0.159820482938101
 32
0
 13
0.541826873901471
 23
0.189266545918402
 33
0
  0
SOLID
  8
0
 62
8
 10
0.571260599980284
 20
0.159820482938101
 30
0
 11
0.541826873901471
 21
0.189266545918402
 31
0
 12
0.571260599980284
 22
0.159820482938101
 32
0
 13
0.538728586945807
 23
0.172218825245596
 33
0
  0
SOLID
  8
0
 62
8
 10
0.566613169546787
 20
0.15517110457279
 30
0
 11
0.571260599980284
 21
0.159820482938101
 31
0
 12
0.566613169546787
 22
0.15517110457279
 32
0
 13
0.538728586945807
 23
0.172218825245596
 33
0
  0
SOLID
  8
0
 62
8
 10
0.554220021724129
 20
0.138123383899984
 30
0
 11
0.566613169546787
 21
0.15517110457279
 31
0
 12
0.554220021724129
 22
0.138123383899984
 32
0
 13
0.538728586945807
 23
0.172218825245596
 33
0
  0
SOLID
  8
0
 62
8
 10
0.554220021724129
 20
0.138123383899984
 30
0
 11
0.538728586945807
 21
0.172218825245596
 31
0
 12
0.554220021724129
 22
0.138123383899984
 32
0
 13
0.526335439123148
 23
0.164469861303412
 33
0
  0
SOLID
  8
0
 62
8
 10
0.5480234478128
 20
0.125725041592489
 30
0
 11
0.554220021724129
 21
0.138123383899984
 31
0
 12
0.5480234478128
 22
0.125725041592489
 32
0
 13
0.526335439123148
 23
0.164469861303412
 33
0
  0
SOLID
  8
0
 62
8
 10
0.5480234478128
 20
0.125725041592489
 30
0
 11
0.526335439123148
 21
0.164469861303412
 31
0
 12
0.5480234478128
 22
0.125725041592489
 32
0
 13
0.503098286955665
 23
0.135023798323111
 33
0
  0
SOLID
  8
0
 62
8
 10
0.509294860866993
 20
0.111776906496557
 30
0
 11
0.5480234478128
 21
0.125725041592489
 31
0
 12
0.509294860866993
 22
0.111776906496557
 32
0
 13
0.503098286955665
 23
0.135023798323111
 33
0
  0
SOLID
  8
0
 62
8
 10
0.523224466401558
 20
0.350526641883519
 30
0
 11
0.517031275361143
 21
0.342781908302354
 31
0
 12
0.523224466401558
 22
0.350526641883519
 32
0
 13
0.513934679840935
 23
0.33503717472119
 33
0
  0
SOLID
  8
0
 62
8
 10
0.479872129118649
 20
0.204925650557621
 30
0
 11
0.482968724638857
 21
0.19408302354399
 31
0
 12
0.479872129118649
 22
0.204925650557621
 32
0
 13
0.492258511199481
 23
0.186338289962825
 33
0
  0
SOLID
  8
0
 62
8
 10
0.524772764161662
 20
0.616945477075589
 30
0
 11
0.512386382080831
 21
0.626239157372986
 31
0
 12
0.524772764161662
 22
0.616945477075589
 32
0
 13
0.501548297760104
 23
0.613847583643123
 33
0
  0
SOLID
  8
0
 62
8
 10
0.620767225288102
 20
0.198729863692689
 30
0
 11
0.636250202889141
 21
0.197180916976456
 31
0
 12
0.620767225288102
 22
0.198729863692689
 32
0
 13
0.639346798409349
 23
0.217317224287485
 33
0
  0
SOLID
  8
0
 62
8
 10
0.538707444002597
 20
0.34587980173482
 30
0
 11
0.523224466401558
 21
0.350526641883519
 31
0
 12
0.538707444002597
 22
0.34587980173482
 32
0
 13
0.513934679840935
 23
0.33503717472119
 33
0
  0
SOLID
  8
0
 62
8
 10
0.450454471676676
 20
0.556536555142503
 30
0
 11
0.44426128063626
 21
0.544144981412639
 31
0
 12
0.450454471676676
 22
0.556536555142503
 32
0
 13
0.450454471676676
 23
0.52865551425031
 33
0
  0
SOLID
  8
0
 62
8
 10
0.513934679840935
 20
0.33503717472119
 30
0
 11
0.504644893280311
 21
0.325743494423792
 31
0
 12
0.513934679840935
 22
0.33503717472119
 32
0
 13
0.501548297760104
 23
0.308705080545229
 33
0
  0
SOLID
  8
0
 62
8
 10
0.492258511199481
 20
0.186338289962825
 30
0
 11
0.504644893280311
 21
0.184789343246592
 31
0
 12
0.492258511199481
 22
0.186338289962825
 32
0
 13
0.512386382080831
 23
0.208023543990087
 33
0
  0
SOLID
  8
0
 62
8
 10
0.569673399204674
 20
0.559634448574969
 30
0
 11
0.561931910404155
 21
0.568928128872367
 31
0
 12
0.569673399204674
 22
0.559634448574969
 32
0
 13
0.54799723056322
 23
0.579770755885998
 33
0
  0
SOLID
  8
0
 62
8
 10
0.786435085619217
 20
0.446561338289963
 30
0
 11
0.78333849009901
 21
0.452757125154895
 31
0
 12
0.786435085619217
 22
0.446561338289963
 32
0
 13
0.761662321457555
 23
0.465148698884758
 33
0
  0
SOLID
  8
0
 62
8
 10
0.608380843207271
 20
0.211121437422553
 30
0
 11
0.620767225288102
 21
0.198729863692689
 31
0
 12
0.608380843207271
 22
0.211121437422553
 32
0
 13
0.639346798409349
 23
0.217317224287485
 33
0
  0
SOLID
  8
0
 62
8
 10
0.478323831358546
 20
0.572026022304833
 30
0
 11
0.467485747037818
 21
0.567379182156134
 31
0
 12
0.478323831358546
 22
0.572026022304833
 32
0
 13
0.450454471676676
 23
0.556536555142503
 33
0
  0
SOLID
  8
0
 62
8
 10
0.479872129118649
 20
0.204925650557621
 30
0
 11
0.492258511199481
 21
0.186338289962825
 31
0
 12
0.479872129118649
 22
0.204925650557621
 32
0
 13
0.512386382080831
 23
0.208023543990087
 33
0
  0
SOLID
  8
0
 62
8
 10
0.574318292484986
 20
0.25139405204461
 30
0
 11
0.589801270086025
 21
0.234355638166047
 31
0
 12
0.574318292484986
 22
0.25139405204461
 32
0
 13
0.597542758886544
 23
0.228159851301115
 33
0
  0
SOLID
  8
0
 62
8
 10
0.620767225288102
 20
0.384603469640644
 30
0
 11
0.608380843207271
 21
0.369114002478315
 31
0
 12
0.620767225288102
 22
0.384603469640644
 32
0
 13
0.605284247687064
 23
0.355173482032218
 33
0
  0
SOLID
  8
0
 62
8
 10
0.609929140967375
 20
0.438816604708798
 30
0
 11
0.616122332007791
 21
0.417131350681537
 31
0
 12
0.609929140967375
 22
0.438816604708798
 32
0
 13
0.620767225288102
 23
0.406288723667906
 33
0
  0
SOLID
  8
0
 62
8
 10
0.482968724638857
 20
0.226610904584882
 30
0
 11
0.479872129118649
 21
0.204925650557621
 31
0
 12
0.482968724638857
 22
0.226610904584882
 32
0
 13
0.512386382080831
 23
0.208023543990087
 33
0
  0
SOLID
  8
0
 62
8
 10
0.482968724638857
 20
0.226610904584882
 30
0
 11
0.512386382080831
 21
0.208023543990087
 31
0
 12
0.482968724638857
 22
0.226610904584882
 32
0
 13
0.513934679840935
 23
0.226610904584882
 33
0
  0
SOLID
  8
0
 62
8
 10
0.482968724638857
 20
0.232806691449814
 30
0
 11
0.482968724638857
 21
0.226610904584882
 31
0
 12
0.482968724638857
 22
0.232806691449814
 32
0
 13
0.513934679840935
 23
0.226610904584882
 33
0
  0
SOLID
  8
0
 62
8
 10
0.636250202889141
 20
0.502323420074349
 30
0
 11
0.636250202889141
 21
0.517812887236679
 31
0
 12
0.636250202889141
 22
0.502323420074349
 32
0
 13
0.62386382080831
 23
0.534851301115242
 33
0
  0
SOLID
  8
0
 62
8
 10
0.504644893280311
 20
0.294764560099133
 30
0
 11
0.498451702239896
 21
0.283921933085502
 31
0
 12
0.504644893280311
 22
0.294764560099133
 32
0
 13
0.492258511199481
 23
0.26223667905824
 33
0
  0
SOLID
  8
0
 62
8
 10
0.501548297760104
 20
0.613847583643123
 30
0
 11
0.495355106719688
 21
0.593711276332094
 31
0
 12
0.501548297760104
 22
0.613847583643123
 32
0
 13
0.492258511199481
 23
0.579770755885998
 33
0
  0
SOLID
  8
0
 62
8
 10
0.530965955202077
 20
0.534851301115242
 30
0
 11
0.549545528323324
 21
0.525557620817844
 31
0
 12
0.530965955202077
 22
0.534851301115242
 32
0
 13
0.563480208164259
 23
0.519361833952912
 33
0
  0
SOLID
  8
0
 62
8
 10
0.65173318049018
 20
0.355173482032218
 30
0
 11
0.662571264810907
 21
0.384603469640644
 31
0
 12
0.65173318049018
 22
0.355173482032218
 32
0
 13
0.664119562571011
 23
0.389250309789343
 33
0
  0
SOLID
  8
0
 62
8
 10
0.698182113293296
 20
0.40319083023544
 30
0
 11
0.716761686414543
 21
0.415582403965304
 31
0
 12
0.698182113293296
 22
0.40319083023544
 32
0
 13
0.72759977073527
 23
0.424876084262701
 33
0
  0
SOLID
  8
0
 62
8
 10
0.695085517773089
 20
0.451208178438662
 30
0
 11
0.676505944651842
 21
0.446561338289963
 31
0
 12
0.695085517773089
 22
0.451208178438662
 32
0
 13
0.659474669290699
 23
0.441914498141264
 33
0
  0
SOLID
  8
0
 62
8
 10
0.62386382080831
 20
0.534851301115242
 30
0
 11
0.608380843207271
 21
0.544144981412639
 31
0
 12
0.62386382080831
 22
0.534851301115242
 32
0
 13
0.589801270086025
 23
0.550340768277571
 33
0
  0
SOLID
  8
0
 62
8
 10
0.752372534896932
 20
0.426425030978934
 30
0
 11
0.777145299058594
 21
0.420229244114003
 31
0
 12
0.752372534896932
 22
0.426425030978934
 32
0
 13
0.786435085619217
 23
0.446561338289963
 33
0
  0
SOLID
  8
0
 62
8
 10
0.450454471676676
 20
0.556536555142503
 30
0
 11
0.450454471676676
 21
0.52865551425031
 31
0
 12
0.450454471676676
 22
0.556536555142503
 32
0
 13
0.470582342558026
 23
0.522459727385378
 33
0
  0
SOLID
  8
0
 62
8
 10
0.752372534896932
 20
0.426425030978934
 30
0
 11
0.786435085619217
 21
0.446561338289963
 31
0
 12
0.752372534896932
 22
0.426425030978934
 32
0
 13
0.761662321457555
 23
0.465148698884758
 33
0
  0
SOLID
  8
0
 62
8
 10
0.752372534896932
 20
0.426425030978934
 30
0
 11
0.761662321457555
 21
0.465148698884758
 31
0
 12
0.752372534896932
 22
0.426425030978934
 32
0
 13
0.741534450576205
 23
0.458952912019827
 33
0
  0
SOLID
  8
0
 62
8
 10
0.72759977073527
 20
0.424876084262701
 30
0
 11
0.752372534896932
 21
0.426425030978934
 31
0
 12
0.72759977073527
 22
0.424876084262701
 32
0
 13
0.741534450576205
 23
0.458952912019827
 33
0
  0
SOLID
  8
0
 62
8
 10
0.72759977073527
 20
0.424876084262701
 30
0
 11
0.741534450576205
 21
0.458952912019827
 31
0
 12
0.72759977073527
 22
0.424876084262701
 32
0
 13
0.719858281934751
 23
0.452757125154895
 33
0
  0
SOLID
  8
0
 62
8
 10
0.513934679840935
 20
0.33503717472119
 30
0
 11
0.501548297760104
 21
0.308705080545229
 31
0
 12
0.513934679840935
 22
0.33503717472119
 32
0
 13
0.504644893280311
 23
0.294764560099133
 33
0
  0
SOLID
  8
0
 62
8
 10
0.492258511199481
 20
0.26223667905824
 30
0
 11
0.482968724638857
 21
0.232806691449814
 31
0
 12
0.492258511199481
 22
0.26223667905824
 32
0
 13
0.513934679840935
 23
0.226610904584882
 33
0
  0
SOLID
  8
0
 62
8
 10
0.492258511199481
 20
0.26223667905824
 30
0
 11
0.513934679840935
 21
0.226610904584882
 31
0
 12
0.492258511199481
 22
0.26223667905824
 32
0
 13
0.52012787088135
 23
0.252942998760843
 33
0
  0
SOLID
  8
0
 62
8
 10
0.72759977073527
 20
0.424876084262701
 30
0
 11
0.719858281934751
 21
0.452757125154895
 31
0
 12
0.72759977073527
 22
0.424876084262701
 32
0
 13
0.695085517773089
 23
0.451208178438662
 33
0
  0
SOLID
  8
0
 62
8
 10
0.597542758886544
 20
0.228159851301115
 30
0
 11
0.608380843207271
 21
0.211121437422553
 31
0
 12
0.597542758886544
 22
0.228159851301115
 32
0
 13
0.639346798409349
 23
0.217317224287485
 33
0
  0
SOLID
  8
0
 62
8
 10
0.597542758886544
 20
0.228159851301115
 30
0
 11
0.639346798409349
 21
0.217317224287485
 31
0
 12
0.597542758886544
 22
0.228159851301115
 32
0
 13
0.620767225288102
 23
0.257589838909542
 33
0
  0
SOLID
  8
0
 62
8
 10
0.557287017123843
 20
0.33503717472119
 30
0
 11
0.538707444002597
 21
0.34587980173482
 31
0
 12
0.557287017123843
 22
0.33503717472119
 32
0
 13
0.513934679840935
 23
0.33503717472119
 33
0
  0
SOLID
  8
0
 62
8
 10
0.504644893280311
 20
0.294764560099133
 30
0
 11
0.492258511199481
 21
0.26223667905824
 31
0
 12
0.504644893280311
 22
0.294764560099133
 32
0
 13
0.52012787088135
 23
0.252942998760843
 33
0
  0
SOLID
  8
0
 62
8
 10
0.504644893280311
 20
0.294764560099133
 30
0
 11
0.52012787088135
 21
0.252942998760843
 31
0
 12
0.504644893280311
 22
0.294764560099133
 32
0
 13
0.534062550722285
 23
0.279275092936803
 33
0
  0
SOLID
  8
0
 62
8
 10
0.504644893280311
 20
0.294764560099133
 30
0
 11
0.534062550722285
 21
0.279275092936803
 31
0
 12
0.504644893280311
 22
0.294764560099133
 32
0
 13
0.540255741762701
 23
0.285470879801735
 33
0
  0
SOLID
  8
0
 62
8
 10
0.597542758886544
 20
0.228159851301115
 30
0
 11
0.620767225288102
 21
0.257589838909542
 31
0
 12
0.597542758886544
 22
0.228159851301115
 32
0
 13
0.617670629767895
 23
0.268432465923172
 33
0
  0
SOLID
  8
0
 62
8
 10
0.643991691689661
 20
0.347428748451053
 30
0
 11
0.65173318049018
 21
0.355173482032218
 31
0
 12
0.643991691689661
 22
0.347428748451053
 32
0
 13
0.664119562571011
 23
0.389250309789343
 33
0
  0
SOLID
  8
0
 62
8
 10
0.574318292484986
 20
0.25139405204461
 30
0
 11
0.597542758886544
 21
0.228159851301115
 31
0
 12
0.574318292484986
 22
0.25139405204461
 32
0
 13
0.617670629767895
 23
0.268432465923172
 33
0
  0
SOLID
  8
0
 62
8
 10
0.540255741762701
 20
0.587515489467162
 30
0
 11
0.524772764161662
 21
0.616945477075589
 31
0
 12
0.540255741762701
 22
0.587515489467162
 32
0
 13
0.501548297760104
 23
0.613847583643123
 33
0
  0
SOLID
  8
0
 62
8
 10
0.569673399204674
 20
0.266883519206939
 30
0
 11
0.574318292484986
 21
0.25139405204461
 31
0
 12
0.569673399204674
 22
0.266883519206939
 32
0
 13
0.617670629767895
 23
0.268432465923172
 33
0
  0
SOLID
  8
0
 62
8
 10
0.698182113293296
 20
0.40319083023544
 30
0
 11
0.72759977073527
 21
0.424876084262701
 31
0
 12
0.698182113293296
 22
0.40319083023544
 32
0
 13
0.695085517773089
 23
0.451208178438662
 33
0
  0
SOLID
  8
0
 62
8
 10
0.622315523048206
 20
0.30405824039653
 30
0
 11
0.63160530960883
 21
0.31954770755886
 31
0
 12
0.622315523048206
 22
0.30405824039653
 32
0
 13
0.643991691689661
 23
0.347428748451053
 33
0
  0
SOLID
  8
0
 62
8
 10
0.540255741762701
 20
0.587515489467162
 30
0
 11
0.501548297760104
 21
0.613847583643123
 31
0
 12
0.540255741762701
 22
0.587515489467162
 32
0
 13
0.492258511199481
 23
0.579770755885998
 33
0
  0
SOLID
  8
0
 62
8
 10
0.478323831358546
 20
0.572026022304833
 30
0
 11
0.450454471676676
 21
0.556536555142503
 31
0
 12
0.478323831358546
 22
0.572026022304833
 32
0
 13
0.470582342558026
 23
0.522459727385378
 33
0
  0
SOLID
  8
0
 62
8
 10
0.478323831358546
 20
0.572026022304833
 30
0
 11
0.470582342558026
 21
0.522459727385378
 31
0
 12
0.478323831358546
 22
0.572026022304833
 32
0
 13
0.496903404479792
 23
0.531753407682776
 33
0
  0
SOLID
  8
0
 62
8
 10
0.492258511199481
 20
0.579770755885998
 30
0
 11
0.478323831358546
 21
0.572026022304833
 31
0
 12
0.492258511199481
 22
0.579770755885998
 32
0
 13
0.496903404479792
 23
0.531753407682776
 33
0
  0
SOLID
  8
0
 62
8
 10
0.492258511199481
 20
0.579770755885998
 30
0
 11
0.496903404479792
 21
0.531753407682776
 31
0
 12
0.492258511199481
 22
0.579770755885998
 32
0
 13
0.515482977601039
 23
0.537949194547708
 33
0
  0
SOLID
  8
0
 62
8
 10
0.639346798409349
 20
0.485285006195787
 30
0
 11
0.636250202889141
 21
0.502323420074349
 31
0
 12
0.639346798409349
 22
0.485285006195787
 32
0
 13
0.62386382080831
 23
0.534851301115242
 33
0
  0
SOLID
  8
0
 62
8
 10
0.674957646891738
 20
0.401641883519207
 30
0
 11
0.698182113293296
 21
0.40319083023544
 31
0
 12
0.674957646891738
 22
0.401641883519207
 32
0
 13
0.695085517773089
 23
0.451208178438662
 33
0
  0
SOLID
  8
0
 62
8
 10
0.674957646891738
 20
0.401641883519207
 30
0
 11
0.695085517773089
 21
0.451208178438662
 31
0
 12
0.674957646891738
 22
0.401641883519207
 32
0
 13
0.659474669290699
 23
0.441914498141264
 33
0
  0
SOLID
  8
0
 62
8
 10
0.664119562571011
 20
0.389250309789343
 30
0
 11
0.674957646891738
 21
0.401641883519207
 31
0
 12
0.664119562571011
 22
0.389250309789343
 32
0
 13
0.659474669290699
 23
0.441914498141264
 33
0
  0
SOLID
  8
0
 62
8
 10
0.540255741762701
 20
0.587515489467162
 30
0
 11
0.492258511199481
 21
0.579770755885998
 31
0
 12
0.540255741762701
 22
0.587515489467162
 32
0
 13
0.515482977601039
 23
0.537949194547708
 33
0
  0
SOLID
  8
0
 62
8
 10
0.54799723056322
 20
0.579770755885998
 30
0
 11
0.540255741762701
 21
0.587515489467162
 31
0
 12
0.54799723056322
 22
0.579770755885998
 32
0
 13
0.515482977601039
 23
0.537949194547708
 33
0
  0
SOLID
  8
0
 62
8
 10
0.54799723056322
 20
0.579770755885998
 30
0
 11
0.515482977601039
 21
0.537949194547708
 31
0
 12
0.54799723056322
 22
0.579770755885998
 32
0
 13
0.530965955202077
 23
0.534851301115242
 33
0
  0
SOLID
  8
0
 62
8
 10
0.569673399204674
 20
0.559634448574969
 30
0
 11
0.54799723056322
 21
0.579770755885998
 31
0
 12
0.569673399204674
 22
0.559634448574969
 32
0
 13
0.530965955202077
 23
0.534851301115242
 33
0
  0
SOLID
  8
0
 62
8
 10
0.569673399204674
 20
0.559634448574969
 30
0
 11
0.530965955202077
 21
0.534851301115242
 31
0
 12
0.569673399204674
 22
0.559634448574969
 32
0
 13
0.563480208164259
 23
0.519361833952912
 33
0
  0
SOLID
  8
0
 62
8
 10
0.589801270086025
 20
0.550340768277571
 30
0
 11
0.569673399204674
 21
0.559634448574969
 31
0
 12
0.589801270086025
 22
0.550340768277571
 32
0
 13
0.563480208164259
 23
0.519361833952912
 33
0
  0
SOLID
  8
0
 62
8
 10
0.589801270086025
 20
0.550340768277571
 30
0
 11
0.563480208164259
 21
0.519361833952912
 31
0
 12
0.589801270086025
 22
0.550340768277571
 32
0
 13
0.585156376805713
 23
0.508519206939281
 33
0
  0
SOLID
  8
0
 62
8
 10
0.62386382080831
 20
0.534851301115242
 30
0
 11
0.589801270086025
 21
0.550340768277571
 31
0
 12
0.62386382080831
 22
0.534851301115242
 32
0
 13
0.585156376805713
 23
0.508519206939281
 33
0
  0
SOLID
  8
0
 62
8
 10
0.62386382080831
 20
0.534851301115242
 30
0
 11
0.585156376805713
 21
0.508519206939281
 31
0
 12
0.62386382080831
 22
0.534851301115242
 32
0
 13
0.591349567846129
 23
0.499225526641884
 33
0
  0
SOLID
  8
0
 62
8
 10
0.639346798409349
 20
0.485285006195787
 30
0
 11
0.62386382080831
 21
0.534851301115242
 31
0
 12
0.639346798409349
 22
0.485285006195787
 32
0
 13
0.591349567846129
 23
0.499225526641884
 33
0
  0
SOLID
  8
0
 62
8
 10
0.639346798409349
 20
0.485285006195787
 30
0
 11
0.591349567846129
 21
0.499225526641884
 31
0
 12
0.639346798409349
 22
0.485285006195787
 32
0
 13
0.597542758886544
 23
0.482187112763321
 33
0
  0
SOLID
  8
0
 62
8
 10
0.639346798409349
 20
0.485285006195787
 30
0
 11
0.597542758886544
 21
0.482187112763321
 31
0
 12
0.639346798409349
 22
0.485285006195787
 32
0
 13
0.60373594992696
 23
0.46050185873606
 33
0
  0
SOLID
  8
0
 62
8
 10
0.648636584969972
 20
0.454306071871128
 30
0
 11
0.639346798409349
 21
0.485285006195787
 31
0
 12
0.648636584969972
 22
0.454306071871128
 32
0
 13
0.60373594992696
 23
0.46050185873606
 33
0
  0
SOLID
  8
0
 62
8
 10
0.648636584969972
 20
0.454306071871128
 30
0
 11
0.60373594992696
 21
0.46050185873606
 31
0
 12
0.648636584969972
 22
0.454306071871128
 32
0
 13
0.609929140967375
 23
0.438816604708798
 33
0
  0
SOLID
  8
0
 62
8
 10
0.659474669290699
 20
0.441914498141264
 30
0
 11
0.648636584969972
 21
0.454306071871128
 31
0
 12
0.659474669290699
 22
0.441914498141264
 32
0
 13
0.609929140967375
 23
0.438816604708798
 33
0
  0
SOLID
  8
0
 62
8
 10
0.659474669290699
 20
0.441914498141264
 30
0
 11
0.609929140967375
 21
0.438816604708798
 31
0
 12
0.659474669290699
 22
0.441914498141264
 32
0
 13
0.620767225288102
 23
0.406288723667906
 33
0
  0
SOLID
  8
0
 62
8
 10
0.664119562571011
 20
0.389250309789343
 30
0
 11
0.659474669290699
 21
0.441914498141264
 31
0
 12
0.664119562571011
 22
0.389250309789343
 32
0
 13
0.620767225288102
 23
0.406288723667906
 33
0
  0
SOLID
  8
0
 62
8
 10
0.664119562571011
 20
0.389250309789343
 30
0
 11
0.620767225288102
 21
0.406288723667906
 31
0
 12
0.664119562571011
 22
0.389250309789343
 32
0
 13
0.620767225288102
 23
0.384603469640644
 33
0
  0
SOLID
  8
0
 62
8
 10
0.643991691689661
 20
0.347428748451053
 30
0
 11
0.664119562571011
 21
0.389250309789343
 31
0
 12
0.643991691689661
 22
0.347428748451053
 32
0
 13
0.620767225288102
 23
0.384603469640644
 33
0
  0
SOLID
  8
0
 62
8
 10
0.643991691689661
 20
0.347428748451053
 30
0
 11
0.620767225288102
 21
0.384603469640644
 31
0
 12
0.643991691689661
 22
0.347428748451053
 32
0
 13
0.605284247687064
 23
0.355173482032218
 33
0
  0
SOLID
  8
0
 62
8
 10
0.643991691689661
 20
0.347428748451053
 30
0
 11
0.605284247687064
 21
0.355173482032218
 31
0
 12
0.643991691689661
 22
0.347428748451053
 32
0
 13
0.59599446112644
 23
0.33503717472119
 33
0
  0
SOLID
  8
0
 62
8
 10
0.622315523048206
 20
0.30405824039653
 30
0
 11
0.643991691689661
 21
0.347428748451053
 31
0
 12
0.622315523048206
 22
0.30405824039653
 32
0
 13
0.59599446112644
 23
0.33503717472119
 33
0
  0
SOLID
  8
0
 62
8
 10
0.620767225288102
 20
0.297862453531599
 30
0
 11
0.622315523048206
 21
0.30405824039653
 31
0
 12
0.620767225288102
 22
0.297862453531599
 32
0
 13
0.59599446112644
 23
0.33503717472119
 33
0
  0
SOLID
  8
0
 62
8
 10
0.620767225288102
 20
0.297862453531599
 30
0
 11
0.59599446112644
 21
0.33503717472119
 31
0
 12
0.620767225288102
 22
0.297862453531599
 32
0
 13
0.577414888005194
 23
0.328841387856258
 33
0
  0
SOLID
  8
0
 62
8
 10
0.513934679840935
 20
0.33503717472119
 30
0
 11
0.504644893280311
 21
0.294764560099133
 31
0
 12
0.513934679840935
 22
0.33503717472119
 32
0
 13
0.540255741762701
 23
0.285470879801735
 33
0
  0
SOLID
  8
0
 62
8
 10
0.557287017123843
 20
0.33503717472119
 30
0
 11
0.513934679840935
 21
0.33503717472119
 31
0
 12
0.557287017123843
 22
0.33503717472119
 32
0
 13
0.540255741762701
 23
0.285470879801735
 33
0
  0
SOLID
  8
0
 62
8
 10
0.557287017123843
 20
0.33503717472119
 30
0
 11
0.540255741762701
 21
0.285470879801735
 31
0
 12
0.557287017123843
 22
0.33503717472119
 32
0
 13
0.558835314883947
 23
0.279275092936803
 33
0
  0
SOLID
  8
0
 62
8
 10
0.577414888005194
 20
0.328841387856258
 30
0
 11
0.557287017123843
 21
0.33503717472119
 31
0
 12
0.577414888005194
 22
0.328841387856258
 32
0
 13
0.558835314883947
 23
0.279275092936803
 33
0
  0
SOLID
  8
0
 62
8
 10
0.569673399204674
 20
0.266883519206939
 30
0
 11
0.617670629767895
 21
0.268432465923172
 31
0
 12
0.569673399204674
 22
0.266883519206939
 32
0
 13
0.620767225288102
 23
0.297862453531599
 33
0
  0
SOLID
  8
0
 62
8
 10
0.577414888005194
 20
0.328841387856258
 30
0
 11
0.558835314883947
 21
0.279275092936803
 31
0
 12
0.577414888005194
 22
0.328841387856258
 32
0
 13
0.569673399204674
 23
0.266883519206939
 33
0
  0
SOLID
  8
0
 62
8
 10
0.577414888005194
 20
0.328841387856258
 30
0
 11
0.569673399204674
 21
0.266883519206939
 31
0
 12
0.577414888005194
 22
0.328841387856258
 32
0
 13
0.620767225288102
 23
0.297862453531599
 33
0
  0
SOLID
  8
0
 62
8
 10
0.357556606070443
 20
0.226610904584882
 30
0
 11
0.338977032949196
 21
0.232806691449814
 31
0
 12
0.357556606070443
 22
0.226610904584882
 32
0
 13
0.334332139668885
 23
0.221964064436183
 33
0
  0
SOLID
  8
0
 62
8
 10
0.433423196315533
 20
0.356722428748451
 30
0
 11
0.427230005275118
 21
0.352075588599752
 31
0
 12
0.433423196315533
 22
0.356722428748451
 32
0
 13
0.430326600795325
 23
0.331939281288724
 33
0
  0
SOLID
  8
0
 62
8
 10
0.455099364956987
 20
0.342781908302354
 30
0
 11
0.433423196315533
 21
0.356722428748451
 31
0
 12
0.455099364956987
 22
0.342781908302354
 32
0
 13
0.430326600795325
 23
0.331939281288724
 33
0
  0
SOLID
  8
0
 62
8
 10
0.433423196315533
 20
0.161555142503098
 30
0
 11
0.442712982876156
 21
0.169299876084263
 31
0
 12
0.433423196315533
 22
0.161555142503098
 32
0
 13
0.45200276943678
 23
0.181691449814126
 33
0
  0
SOLID
  8
0
 62
8
 10
0.459744258237299
 20
0.328841387856258
 30
0
 11
0.455099364956987
 21
0.342781908302354
 31
0
 12
0.459744258237299
 22
0.328841387856258
 32
0
 13
0.430326600795325
 23
0.331939281288724
 33
0
  0
SOLID
  8
0
 62
8
 10
0.459744258237299
 20
0.328841387856258
 30
0
 11
0.430326600795325
 21
0.331939281288724
 31
0
 12
0.459744258237299
 22
0.328841387856258
 32
0
 13
0.436519791835741
 23
0.311802973977695
 33
0
  0
SOLID
  8
0
 62
8
 10
0.464389151517611
 20
0.308705080545229
 30
0
 11
0.459744258237299
 21
0.328841387856258
 31
0
 12
0.464389151517611
 22
0.308705080545229
 32
0
 13
0.436519791835741
 23
0.311802973977695
 33
0
  0
SOLID
  8
0
 62
8
 10
0.386974263512417
 20
0.187887236679058
 30
0
 11
0.377684476951793
 21
0.201827757125155
 31
0
 12
0.386974263512417
 22
0.187887236679058
 32
0
 13
0.36839469039117
 23
0.211121437422553
 33
0
  0
SOLID
  8
0
 62
8
 10
0.419488516474598
 20
0.195631970260223
 30
0
 11
0.411747027674079
 21
0.189436183395291
 31
0
 12
0.419488516474598
 22
0.195631970260223
 32
0
 13
0.402457241113455
 23
0.170848822800496
 33
0
  0
SOLID
  8
0
 62
8
 10
0.464389151517611
 20
0.308705080545229
 30
0
 11
0.436519791835741
 21
0.311802973977695
 31
0
 12
0.464389151517611
 22
0.308705080545229
 32
0
 13
0.436519791835741
 23
0.291666666666667
 33
0
  0
SOLID
  8
0
 62
8
 10
0.467485747037818
 20
0.285470879801735
 30
0
 11
0.464389151517611
 21
0.308705080545229
 31
0
 12
0.467485747037818
 22
0.285470879801735
 32
0
 13
0.436519791835741
 23
0.291666666666667
 33
0
  0
SOLID
  8
0
 62
8
 10
0.458195960477195
 20
0.268432465923172
 30
0
 11
0.467485747037818
 21
0.285470879801735
 31
0
 12
0.458195960477195
 22
0.268432465923172
 32
0
 13
0.436519791835741
 23
0.291666666666667
 33
0
  0
SOLID
  8
0
 62
8
 10
0.458195960477195
 20
0.268432465923172
 30
0
 11
0.436519791835741
 21
0.291666666666667
 31
0
 12
0.458195960477195
 22
0.268432465923172
 32
0
 13
0.428778303035221
 23
0.263785625774473
 33
0
  0
SOLID
  8
0
 62
8
 10
0.455099364956987
 20
0.248296158612144
 30
0
 11
0.458195960477195
 21
0.268432465923172
 31
0
 12
0.455099364956987
 22
0.248296158612144
 32
0
 13
0.428778303035221
 23
0.263785625774473
 33
0
  0
SOLID
  8
0
 62
8
 10
0.4
 20
0
 30
0
 11
0.44
 21
0
 31
0
 12
0.4
 22
0
 32
0
 13
0.430326600795325
 23
1.75030978934325E-02
 33
0
  0
SOLID
  8
0
 62
8
 10
0.36839469039117
 20
0.211121437422553
 30
0
 11
0.357556606070443
 21
0.226610904584882
 31
0
 12
0.36839469039117
 22
0.211121437422553
 32
0
 13
0.334332139668885
 23
0.221964064436183
 33
0
  0
SOLID
  8
0
 62
8
 10
0.425681707515014
 20
3.29925650557621E-02
 30
0
 11
0.422585111994806
 21
4.69330855018587E-02
 31
0
 12
0.425681707515014
 22
3.29925650557621E-02
 32
0
 13
0.414843623194287
 23
6.70693928128872E-02
 33
0
  0
SOLID
  8
0
 62
8
 10
0.455099364956987
 20
0.248296158612144
 30
0
 11
0.428778303035221
 21
0.263785625774473
 31
0
 12
0.455099364956987
 22
0.248296158612144
 32
0
 13
0.422585111994806
 23
0.229708798017348
 33
0
  0
SOLID
  8
0
 62
8
 10
0.448906173916572
 20
0.225061957868649
 30
0
 11
0.455099364956987
 21
0.248296158612144
 31
0
 12
0.448906173916572
 22
0.225061957868649
 32
0
 13
0.422585111994806
 23
0.229708798017348
 33
0
  0
SOLID
  8
0
 62
8
 10
0.448906173916572
 20
0.225061957868649
 30
0
 11
0.422585111994806
 21
0.229708798017348
 31
0
 12
0.448906173916572
 22
0.225061957868649
 32
0
 13
0.422585111994806
 23
0.215768277571252
 33
0
  0
SOLID
  8
0
 62
8
 10
0.45200276943678
 20
0.201827757125155
 30
0
 11
0.448906173916572
 21
0.225061957868649
 31
0
 12
0.45200276943678
 22
0.201827757125155
 32
0
 13
0.422585111994806
 23
0.215768277571252
 33
0
  0
SOLID
  8
0
 62
8
 10
0.45200276943678
 20
0.201827757125155
 30
0
 11
0.422585111994806
 21
0.215768277571252
 31
0
 12
0.45200276943678
 22
0.201827757125155
 32
0
 13
0.419488516474598
 23
0.195631970260223
 33
0
  0
SOLID
  8
0
 62
8
 10
0.45200276943678
 20
0.181691449814126
 30
0
 11
0.45200276943678
 21
0.201827757125155
 31
0
 12
0.45200276943678
 22
0.181691449814126
 32
0
 13
0.419488516474598
 23
0.195631970260223
 33
0
  0
SOLID
  8
0
 62
8
 10
0.433423196315533
 20
0.161555142503098
 30
0
 11
0.45200276943678
 21
0.181691449814126
 31
0
 12
0.433423196315533
 22
0.161555142503098
 32
0
 13
0.419488516474598
 23
0.195631970260223
 33
0
  0
SOLID
  8
0
 62
8
 10
0.433423196315533
 20
0.161555142503098
 30
0
 11
0.419488516474598
 21
0.195631970260223
 31
0
 12
0.433423196315533
 22
0.161555142503098
 32
0
 13
0.402457241113455
 23
0.170848822800496
 33
0
  0
SOLID
  8
0
 62
8
 10
0.419488516474598
 20
0.153810408921933
 30
0
 11
0.433423196315533
 21
0.161555142503098
 31
0
 12
0.419488516474598
 22
0.153810408921933
 32
0
 13
0.402457241113455
 23
0.170848822800496
 33
0
  0
SOLID
  8
0
 62
8
 10
0.419488516474598
 20
0.153810408921933
 30
0
 11
0.402457241113455
 21
0.170848822800496
 31
0
 12
0.419488516474598
 22
0.153810408921933
 32
0
 13
0.397812347833144
 23
0.173946716232962
 33
0
  0
SOLID
  8
0
 62
8
 10
0.413295325434183
 20
0.141418835192069
 30
0
 11
0.419488516474598
 21
0.153810408921933
 31
0
 12
0.413295325434183
 22
0.141418835192069
 32
0
 13
0.397812347833144
 23
0.173946716232962
 33
0
  0
SOLID
  8
0
 62
8
 10
0.36839469039117
 20
0.211121437422553
 30
0
 11
0.334332139668885
 21
0.221964064436183
 31
0
 12
0.36839469039117
 22
0.211121437422553
 32
0
 13
0.335880437428989
 23
0.192534076827757
 33
0
  0
SOLID
  8
0
 62
8
 10
0.417940218714494
 20
8.56567534076828E-02
 30
0
 11
0.417940218714494
 21
0.11043990086741
 31
0
 12
0.417940218714494
 22
8.56567534076828E-02
 32
0
 13
0.413295325434183
 23
0.12592936802974
 33
0
  0
SOLID
  8
0
 62
8
 10
0.4
 20
0
 30
0
 11
0.430326600795325
 21
1.75030978934325E-02
 31
0
 12
0.4
 22
0
 32
0
 13
0.425681707515014
 23
3.29925650557621E-02
 33
0
  0
SOLID
  8
0
 62
8
 10
0.385425965752313
 20
4.53841387856258E-02
 30
0
 11
0.4
 21
0
 31
0
 12
0.385425965752313
 22
4.53841387856258E-02
 32
0
 13
0.425681707515014
 23
3.29925650557621E-02
 33
0
  0
SOLID
  8
0
 62
8
 10
0.385425965752313
 20
4.53841387856258E-02
 30
0
 11
0.425681707515014
 21
3.29925650557621E-02
 31
0
 12
0.385425965752313
 22
4.53841387856258E-02
 32
0
 13
0.414843623194287
 23
6.70693928128872E-02
 33
0
  0
SOLID
  8
0
 62
8
 10
0.379232774711897
 20
7.94609665427509E-02
 30
0
 11
0.385425965752313
 21
4.53841387856258E-02
 31
0
 12
0.379232774711897
 22
7.94609665427509E-02
 32
0
 13
0.414843623194287
 23
6.70693928128872E-02
 33
0
  0
SOLID
  8
0
 62
8
 10
0.379232774711897
 20
7.94609665427509E-02
 30
0
 11
0.414843623194287
 21
6.70693928128872E-02
 31
0
 12
0.379232774711897
 22
7.94609665427509E-02
 32
0
 13
0.417940218714494
 23
8.56567534076828E-02
 33
0
  0
SOLID
  8
0
 62
8
 10
0.383877667992209
 20
0.102695167286245
 30
0
 11
0.379232774711897
 21
7.94609665427509E-02
 31
0
 12
0.383877667992209
 22
0.102695167286245
 32
0
 13
0.417940218714494
 23
8.56567534076828E-02
 33
0
  0
SOLID
  8
0
 62
8
 10
0.383877667992209
 20
0.102695167286245
 30
0
 11
0.417940218714494
 21
8.56567534076828E-02
 31
0
 12
0.383877667992209
 22
0.102695167286245
 32
0
 13
0.413295325434183
 23
0.12592936802974
 33
0
  0
SOLID
  8
0
 62
8
 10
0.383877667992209
 20
0.122831474597274
 30
0
 11
0.383877667992209
 21
0.102695167286245
 31
0
 12
0.383877667992209
 22
0.122831474597274
 32
0
 13
0.413295325434183
 23
0.12592936802974
 33
0
  0
SOLID
  8
0
 62
8
 10
0.383877667992209
 20
0.122831474597274
 30
0
 11
0.413295325434183
 21
0.12592936802974
 31
0
 12
0.383877667992209
 22
0.122831474597274
 32
0
 13
0.413295325434183
 23
0.141418835192069
 33
0
  0
SOLID
  8
0
 62
8
 10
0.371491285911378
 20
0.150712515489467
 30
0
 11
0.383877667992209
 21
0.122831474597274
 31
0
 12
0.371491285911378
 22
0.150712515489467
 32
0
 13
0.413295325434183
 23
0.141418835192069
 33
0
  0
SOLID
  8
0
 62
8
 10
0.371491285911378
 20
0.150712515489467
 30
0
 11
0.413295325434183
 21
0.141418835192069
 31
0
 12
0.371491285911378
 22
0.150712515489467
 32
0
 13
0.397812347833144
 23
0.173946716232962
 33
0
  0
SOLID
  8
0
 62
8
 10
0.371491285911378
 20
0.150712515489467
 30
0
 11
0.397812347833144
 21
0.173946716232962
 31
0
 12
0.371491285911378
 22
0.150712515489467
 32
0
 13
0.386974263512417
 23
0.187887236679058
 33
0
  0
SOLID
  8
0
 62
8
 10
0.354460010550235
 20
0.16775092936803
 30
0
 11
0.371491285911378
 21
0.150712515489467
 31
0
 12
0.354460010550235
 22
0.16775092936803
 32
0
 13
0.386974263512417
 23
0.187887236679058
 33
0
  0
SOLID
  8
0
 62
8
 10
0.354460010550235
 20
0.16775092936803
 30
0
 11
0.386974263512417
 21
0.187887236679058
 31
0
 12
0.354460010550235
 22
0.16775092936803
 32
0
 13
0.36839469039117
 23
0.211121437422553
 33
0
  0
SOLID
  8
0
 62
8
 10
0.354460010550235
 20
0.16775092936803
 30
0
 11
0.36839469039117
 21
0.211121437422553
 31
0
 12
0.354460010550235
 22
0.16775092936803
 32
0
 13
0.335880437428989
 23
0.192534076827757
 33
0
  0
ENDSEC
  0
EOF
